Cifra Club

Aprenda

Infinitamente Mais

Resgate

Cifra: Versão 3 (violão e guitarra)
tom: B
E|---------------------------------------------------------------------------------------------
B|--------------7-------------------------------------------------------------------------------
G|----6b-6b-6b----4-6b-6b-6b-------4-3---------------3--6--4----------------------------------
D|--------------------------------------6-6/8--8--6-------------------------------------------
A|---------------------------------------------------------------------------------------------
E|----------------------------------------------------------------------------------------------

E|------------------------------------14----------------16--16--14---------------------------------
B|------12--11--12--11--------12--11------14----14--12--------------14--16-------------------------
G|----------------------11------------------------------------------------------------------------
D|-------------------------------------------------------------------------------------------------
A|-------------------------------------------------------------------------------------------------
E|-------------------------------------------------------------------------------------------------

E|-------------------------------------------------------------------------------------------------
B|-------------------------------------------------------------------------------------------------
G|-11--9--8--------------------------------------------------------------4-5-6-5-4----------------
D|-----------11--9--8---------------------------------------------4-5-6------------6-5-4----------
A|---------------------11--9--7-----------------------------4-5-6------------------------6-5-4-5-6-
E|---------------------------------11--9--7---4-------4-5-7----------------------------------------

E|-------------------------------------------------------------------------------------------------
B|-------------------------------------------------------------------------------------------------
G|------------4----6---6b--6b--6b--6b--6b-------6---4-----4--6--4----------------------------------
D|----4-5-6--------------------------------------------------6-----6--4----------------------------
A|-----------------------------------------------------------------------6--4--2-----2--2----------
E|-----------------------------------------------------------------------------------------4-------

Composição de Hamilton Gomes / Jorge Bruno / Marcelo Bassa / Zé Bruno
Colaboração e revisão:
  • marcos Ximenes
  • Arthur Silva
4.968 exibições
  • Simplificar cifra
    • ½ Tom
    • A
    • Bb
    • B
    • C
    • Db
    • D
    • Eb
    • E
    • F
    • F#
    • G
    • Ab
  • Adicionar à lista

    0 comentários

    Ver todos os comentários

    Conseguiu tocar?

    0 Tocaram 0 Ainda não

    Grave um vídeo tocando Infinitamente Mais e nos envie!

    00:00 / 00:00
    outros vídeos desta música
    repetir qualidade Automático
    Outros vídeos desta música
    00:00 / 00:00
    Automático

    Cifra Club Pro

    Aproveite o Cifra Club com benefícios exclusivos e sem anúncios
    Cifra Club Pro
    Aproveite o Cifra Club com benefícios exclusivos e sem anúncios
    OK