Cifra Club

Aprenda

Neófito

Resgate

Cifra: Principal (violão e guitarra)
tom: E
C#m           B9          Bbm5-/7         A9            C#m7
Não há mais nada que me prenda ao que eu não quero mais fazer
        B9         Bbm5-/7     A9       C#m7
Eles confundem ilusão com liberdade
          B9             Bbm5-/7        A9          C#m7
Se dizem "sim" se dizem livres, mas não podem dizer "não"
         B9              Bbm5-/7      B5 C5 C#5  G#
Fazem de conta que a imitação é de verdade

         A9              G#
Tanta teoria pra me embriagar
             A             B9         E
Ninguém me entende mais eu vou continuar

              C#m          F#m
E|----------------------------|
B|----------------------------|
G|----------------------------|
D|---------2------------------|
A|-2-3h-4h----4--2-3h-4h------|
E|------------------------4-2-|

               B                         E
Comecei por um dia e nunca mais eu vou parar

              C#m          F#m
E|----------------------------|
B|----------------------------|
G|----------------------------|
D|---------2------------------|
A|-2-3h-4h----4--2-3h-4h------|
E|------------------------4-2-|
                  B                       E
Fui do inferno ao céu e não quero mais voltar

              C#m          F#m
E|----------------------------|
B|----------------------------|
G|----------------------------|
D|---------2------------------|
A|-2-3h-4h----4--2-3h-4h------|
E|------------------------4-2-|
                   B                 C#m
Não preciso e não vou me explicar

          B9             Bbm5-/7      A9          C#m7
Não há loucura quando os loucos já confundem os normais
        B9       Bbm5-/7        A9      C#m7
Eles comparam o dinheiro com a vida
            B9           Bbm5-/7        A9          C#m7
Se compram sempre, mas se vendem, nada sobra pra contar
         B9         Bbm5-/7      B5 C5 C#5  G#
Fazem de conta que opção não escraviza

           A                G#
Mas eu não posso parar de falar
             A        B             E
O que meus olhos não cansam de enxergar

              C#m          F#m
E|----------------------------|
B|----------------------------|
G|----------------------------|
D|---------2------------------|
A|-2-3h-4h----4--2-3h-4h------|
E|------------------------4-2-|

               B                         E
Comecei por um dia e nunca mais eu vou parar

              C#m          F#m
E|----------------------------|
B|----------------------------|
G|----------------------------|
D|---------2------------------|
A|-2-3h-4h----4--2-3h-4h------|
E|------------------------4-2-|
                  B                       E
Fui do inferno ao céu e não quero mais voltar

              C#m          F#m
E|----------------------------|
B|----------------------------|
G|----------------------------|
D|---------2------------------|
A|-2-3h-4h----4--2-3h-4h------|
E|------------------------4-2-|
                   B
Não preciso e não vou me explicar

(solo) C#m  B9   Bbm5-/7  A9  C#m7 (3x)
       C#m  B9   Bbm5-/7  B5 C5 C#5  G#

   A9              G#
Tanta teoria pra me embriagar
             A             B9         E
Ninguém me entende mais eu vou continuar

              C#m          F#m
E|----------------------------|
B|----------------------------|
G|----------------------------|
D|---------2------------------|
A|-2-3h-4h----4--2-3h-4h------|
E|------------------------4-2-|

               B                         E
Comecei por um dia e nunca mais eu vou parar

              C#m          F#m
E|----------------------------|
B|----------------------------|
G|----------------------------|
D|---------2------------------|
A|-2-3h-4h----4--2-3h-4h------|
E|------------------------4-2-|
                  B                       E
Fui do inferno ao céu e não quero mais voltar

              C#m          F#m
E|----------------------------|
B|----------------------------|
G|----------------------------|
D|---------2------------------|
A|-2-3h-4h----4--2-3h-4h------|
E|------------------------4-2-|

                B                         C#m
Comecei por um dia e nunca mais eu vou parar

              C#m            Bbm5-/7
E|----------------------------|
B|----------------------------|
G|----------------------------|
D|-----------2----------------|
A|-4-2-3h-4h---4--2-3h-4--2-1-|
E|----------------------------|

                  B                       C#m
Fui do inferno ao céu e não quero mais voltar


              C#m            Bbm5-/7
E|----------------------------|
B|----------------------------|
G|----------------------------|
D|-----------2----------------|
A|-4-2-3h-4h---4--2-3--4--2-1-|
E|----------------------------|

(finaliza a música vocalizando sob o último riff)
Composição de Zé Bruno
Colaboração e revisão:
22.984 exibições
    • ½ Tom
    • A
    • Bb
    • B
    • C
    • Db
    • D
    • Eb
    • E
    • F
    • F#
    • G
    • Ab
  • Adicionar à lista

    0 comentários

    Ver todos os comentários
    00:00 / 00:00
    outros vídeos desta música
    repetir qualidade Automático
    Outros vídeos desta música
    00:00 / 00:00
    Automático

    Cifra Club Pro

    Aproveite o Cifra Club com benefícios exclusivos e sem anúncios
    Cifra Club Pro
    Aproveite o Cifra Club com benefícios exclusivos e sem anúncios
    OK