Cifra Club

O Que Não Precisa

Resgate

Cifra: Principal (violão e guitarra)
Tom: G
Intro: G C9 G C9

G                  Am                   Em
Você desprezou o amor e tudo o que Ele já te deu
                G               D
E deu muito mais valor
                      C9
A todas as outras coisas
                          G  Am                   Em
Você correu como um tolo atrás do que os olhos veem
                          G    C9
E procurou o mundo afora
                   G
Coisas que você já tem

                 Em   D/F#                 C9
Ele te deu as mais loucas pra confundir as mais sábias
                 Em     D/F#              C9
E te deixou as mais fracas pra te livrar da tua força
                   Em            D/F#    G             C9
Ele escolheu bem as que não são pra te lembrar que você não é
           Am      D
E que não precisa ser
             G
O que não Precisa

BASE P/ SOLO: 3X ==> Em C G D/F#
              1X ==> Em C G D/F# C  ==>  VOLTA REFRÃO

SOLO:

   B8 D8 E8 D8 E8 G8  B8      A8 G8 A8
E|------------------------------------------|
B|------------------------------------------|
G|-4--7--9--7--9--12--161616--14-12-14-14-|
D|------------------------------------------|
A|-2--5--7--5--7--10--141414--12-10-12-12-|
E|------------------------------------------|

   B8   D8 E8 D8 E8 G8  B8      A8 G8  F#8 E8 D8
E|---------------------------------------------------|
B|---------------------------------------------------|
G|-444--7--9--7--9--12--161616--14-12--11---9--7-----|
D|---------------------------------------------------|
A|-222--5--7--5--7--10--141414--12-10--9----7--5-----|
E|---------------------------------------------------|

   B8    D8 E8 D8 E8  G8  B8      A8 G8 A8
E|----------------------------------------------|
B|----------------------------------------------|
G|-4-4-4--7--9--7--9--12--161616--14-12-14-14---|
D|----------------------------------------------|
A|-2-2-2--5--7--5--7--10--141414--12-10-12-12---|
E|----------------------------------------------|

   B8  D8 E8 D8 E8  G8  B8      A8 G8  F#8 E8 D8
E|---------------------------------------------------|
B|---------------------------------------------------|
G|-444--7--9--7--9--12--161616--14-12--11---9--7-----|
D|---------------------------------------------------|
A|-222--5--7--5--7--10--141414--12-10--9----7--5-----|
E|---------------------------------------------------|

     C9
E|-333-X-3-X-3-|
B|-333-X-3-X-3-|
G|-000-X-0-X-0-|==>  VOLTA REFRÃO
D|-000-X-0-X-0-|
A|-333-X-3-X-3-|
E|-------------|
exibições 11.449
Acordes para:
    Composição: Zé Bruno Colaboração e revisão:

    0 comentários

    mostrar mais comentários

    Conseguiu tocar?

    10 tocaram 0 ainda não

    Grave um vídeo tocando O Que Não Precisa e mande pra gente!

    00:00 / 00:00
    outros vídeos desta música
    repetir qualidade Automático
    Outros vídeos desta música
    00:00 / 00:00
    Automático
    OK