Cifra Club

Te Encontrar

Resgate

Cifra: Principal (violão e guitarra)
Tom: E
Intro: B  F#

B                 F#                       G        A         B
 Eu tava quase chegando no chão E o pára-quedas reserva se abriu
B                  F#                    G       A
Depois de mil tentativas em vão Desfibrilaram o meu coração

( B  A  G#m  A ) (2x)
E|--------------------------------------
B|--5/7-7-8p7-7\4-5p4-4\2-0-2-3-2-0-----
G|--------------------------------------
D|--------------------------------------
A|--------------------------------------
E|--------------------------------------


B                F#                  G        A       B
 Eu engoli quase um oceano Veio uma tábua boiando no mar
B                F#                    G        A      B
 Perdido na superfície da lua Eu encontrei uma sonda lunar

( B A# ) G#m                    F#
           Foi a loucura que eu nunca pensei
( F# A# ) G#m                     A          F#
           Foi a surpresa que eu sempre esperei
          B   C#m
Te encontrar
     F#                    B   C#m         F#                   B   C#m
Foi mais que nascer foi matar           O mal que tentou me vencer
   F#                    G         A        B
 E tudo que eu quero é Jesus Teu amor nada mais

( B  A  G#m  A ) (2x)
E|--------------------------------------
B|--5/7-7-8p7-7|4-5p4-4|2-0-2-3-2-0-----
G|--------------------------------------
D|--------------------------------------
A|--------------------------------------
E|--------------------------------------


B                     F#                      G         A      B
 E quando um dia eu caí no Saara Eu tive um pão pra me alimentar
B                     F#                     G        A      B
 Enquanto o sol escaldante atacava Veio uma rocha pra me saciar

( B A# )  G#m                    F#
            Foi a loucura que eu nunca pensei
( F# A# )  G#m                     A          F#
            Foi a surpresa que eu sempre esperei
         B   C#m
Te encontrar
     F#                    B   C#m         F#                   B   C#m
Foi mais que nascer foi matar           O mal que tentou me vencer
   F#                    G         A        B
 E tudo que eu quero é Jesus Teu amor nada mais

Solo: B  G#m  F#  (2x)
      G  A  G#m
E|---------------
B|---5--4---2----
G|---------------
D|---------------
A|---------------
E|---------------


                              F#
           Foi a loucura que eu nunca pensei
( F# A# ) G#m                     A          F#
           Foi a surpresa que eu sempre esperei

         B   C#m
Te encontrar
     F#                    B   C#m         F#                   B   C#m
Foi mais que nascer foi matar           O mal que tentou me vencer
   F#                    G         A        B
 E tudo que eu quero é Jesus Teu amor nada mais

( B  A  G#m  A ) (10x)
Solo:
E|--------------------------------------
B|--5/7-7-8p7-7\4-5p4-4\2-0-2-3-2-0-----
G|--------------------------------------
D|--------------------------------------
A|--------------------------------------
E|--------------------------------------
exibições 33.302
Acordes para:
    Composição: Resgate Colaboração e revisão:
    • Isabela Silva
    • Rui Pereira
    • Carlitos Fioravante

    0 comentários

    mostrar mais comentários

    Conseguiu tocar?

    3 tocaram 0 ainda não

    Grave um vídeo tocando Te Encontrar e mande pra gente!

    00:00 / 00:00
    outros vídeos desta música
    repetir qualidade Automático
    Outros vídeos desta música
    00:00 / 00:00
    Automático
    OK