Cifra Club

Tudo Certo

Resgate

Cifra: Principal (violão e guitarra)
tom: G
Intro: G C5 (2x)

G                 C/G              G  C/G
 Quanto mais eu vejo e sinto, mais espero o Teu querer
G                C/G             G  C/G
 Quanto mais eu me aproximo, mais eu sei o que é viver

Em7               A
Quanto mais o mundo Te despreza  Mais eu paro tudo
C5              D
Pra sentar na Tua casa, pra Te ouvir a vida inteira

G        C5
 Quanto mais Te sigo de perto
   ( G   C5 )

E|------------------------------------------|
B|------------------------------------------|
G|------------------------------------------|
D|------------5----5h7p5--------------------|
A|------5h7---------------------------------|
E|------------------------------------------|

G         C5
 Mais seguro eu vou, tudo certo
   ( G   C5 )

E|------------------------------------------|
B|------------------------------------------|
G|------------------------------------------|
D|------------5----5h7p5--------------------|
A|------5h7---------------------------------|
E|------------------------------------------|

( Am7 G/B C5 )

G                C5
 Quanto mais o tempo corre, menos eu quero correr
( G   C5 )

(1:14 min até 1:20 min)
E|------------------------------------------|
B|-8--8--7------------8---8--7--------------|
G|---------9---7---7-----------9----7---9---|
D|------------------------------------------|
A|------------------------------------------|
E|------------------------------------------|

G                C5
 Quanto mais o mundo esquece, menos eu quero esquecer
( G   C5 )

(1:25 min - até 1:30min)
E|------------------------------------------|
B|------------------------------------------|
G|-4-5-7-5-4-4--4-5-7-5-4-5-----------------|
D|--------------------------2/4--2----------|
A|------------------------------------------|
E|------------------------------------------|

Em7              A
Quanto mais o mundo Te despreza  Mais eu paro tudo
C5              D
Pra sentar na Tua casa, pra Te ouvir a vida inteira


G        C5
 Quanto mais Te sigo de perto
   ( G  C5)

E|------------------------------------------|
B|------------------------------------------|
G|------------------------------------------|
D|------------5----5h7p5--------------------|
A|------5h7---------------------------------|
E|------------------------------------------|

G         C5
 Mais seguro eu vou, tudo certo
   ( G   C5 )

E|------------------------------------------|
B|------------------------------------------|
G|------------------------------------------|
D|------------5----5h7p5--------------------|
A|------5h7---------------------------------|
E|------------------------------------------|

G        C5
 Quanto mais Te sigo de perto
G          C5
 Not so far away, not so far
E|------------------------------------------|
B|------------------------------------------|
G|------------------------------------------|
D|------------5----5h7p5--------------------|
A|------5h7---------------------------------|
E|------------------------------------------|

G            C5
 Mais tranqüilo eu vou, tudo certo
G         C5
 Not so far away, it's alright
E|------------------------------------------|
B|------------------------------------------|
G|------------------------------------------|
D|------------5----5h7p5--------------------|
A|------5h7---------------------------------|
E|------------------------------------------|

Final: Am7 G/B C5 G
00:00 / 00:00
Outros vídeos desta música
Repetir
Outros vídeos desta música
Composição de Dudu Borges / Zé Bruno
49.649 exibições
    • ½ Tom
    • A
    • Bb
    • B
    • C
    • Db
    • D
    • Eb
    • E
    • F
    • F#
    • G
    • Ab
  • Adicionar à lista

    0 comentários

    Ver todos os comentários

    Entre para oCifra Club PRO

    Tenha acesso a benefícios exclusivos no App e no Site

    • Chega de anúncios

    • Prioridade de compra em lançamentos

    • Mais recursos no app do Afinador

    • Atendimento Prioritário

    • Descontos nos produtos Cifra Club

    • Ajude a produzir mais conteúdo

    00:00 / 00:00

    Cifra Club Pro

    Aproveite o Cifra Club com benefícios exclusivos e sem anúncios
    Cifra Club Pro
    Aproveite o Cifra Club com benefícios exclusivos e sem anúncios
    OK