Cifra Club

Aprenda

Como tem que ser

Restart

Cifra: Principal (violão e guitarra)
tom: B
( B  E  G#m  E  F# )
Não vou, não vou mais deixar você partir
Pois vejo, estou cada vez melhor
Eu sei que é tarde mas não vamos dormir
Vem aqui e eu te mostro como tem que ser

(riff)
E|------------------------------------------------
B|------------------------------------------------
G|------------------------------------------------
D|-----4-4---0-----2-1-2-1-----4-4---0-------1-2-1
A|-2-2-----2-----------------------2-------6------
E|-------------0-0---------4-4---------0-0--------

( B  F#  E  F# )
E a noite vem mais uma vez me dizer
Que a vida é feita pra se aproveitar e aprender
E o que passou melhor deixar pra trás
As velhas mágoas não importam mais

( G#m  E  B  F# ) ( E  F#  C#m  D#m  E )
Eu quero mais daquilo que a gente chama de amor
Um pouco mais de tudo que ainda não passou
Todos os planos que eu fiz pra mim
Eu vou até o fim para realizar com você

( B  E  G#m  E  F# )
Não vou, não vou mais deixar você partir
Pois vejo, estou cada vez melhor
Eu sei que é tarde mas não vamos dormir
Vem aqui e eu te mostro como tem que ser

(riff)
E|------------------------------------------------
B|------------------------------------------------
G|------------------------------------------------
D|-----4-4---0-----2-1-2-1-----4-4---0-------1-2-1
A|-2-2-----2-----------------------2-------6------
E|-------------0-0---------4-4---------0-0--------

( B  F#  E  F# )
E a noite vem mais uma vez me dizer
Que a vida é feita pra se aproveitar e aprender
E o que passou melhor deixar pra trás
As velhas mágoas não importam mais

( G#m  E  B  F# ) ( E  F#  C#m  D#m  E )
Eu quero mais daquilo que a gente chama de amor
Um pouco mais de tudo que ainda não passou
Todos os planos que eu fiz pra mim
Eu vou até o fim para realizar com você

( B  E  G#m  E  F# )
Não vou, não vou mais deixar você partir
Pois vejo, estou cada vez melhor
Eu sei que é tarde mas não vamos dormir
Vem aqui e eu te mostro como tem que ser

E|--------------------------
B|--------------------------
G|--8--/9\8--6--/8\6---4----
D|--------------------------
A|--6--/7\6--4--/6\4---2----
E|--------------------------

( B  F#  E  F# )
Colaboração e revisão:
67.601 exibições
    • ½ Tom
    • A
    • Bb
    • B
    • C
    • Db
    • D
    • Eb
    • E
    • F
    • F#
    • G
    • Ab
  • Adicionar à lista

    0 comentários

    Ver todos os comentários

    Conseguiu tocar?

    3 Tocaram 0 Ainda não

    Grave um vídeo tocando Como tem que ser e nos envie!

    00:00 / 00:00
    outros vídeos desta música
    repetir qualidade Automático
    Outros vídeos desta música
    00:00 / 00:00
    Automático

    Cifra Club Pro

    Aproveite o Cifra Club com benefícios exclusivos e sem anúncios
    Cifra Club Pro
    Aproveite o Cifra Club com benefícios exclusivos e sem anúncios
    OK