Cifra Club

Levo Comigo

Restart

Tab de baixo: Principal
(primeiro verso - 2x)

G|--------------------|
D|--------------------|
A|-5------------------|
E|--------------------|

G|--------------------|
D|--------------------|
A|--------------------|
E|-3------------------|

G|--------------------|
D|--------------------|
A|--------------------|
E|-7------------------|

G|--------------------|
D|--------------------|
A|--------------------|
E|-3------------------|

(pré-refrão)
G|---------------------|
D|---------------------|
A|---------------------|
E|--0-0-0-0-0-0--------|

G|---------------------|
D|---------------------|
A|---------------------|
E|-3-3-3-3-3-3---------|

G|---------------------|
D|---------------------|
A|-2-2-2-2-2-2---------|
E|---------------------|

G|---------------------|
D|---------------------|
A|---------------------|
E|-5-5-5-5-5-5---------|

G|---------------------|
D|---------------------|
A|---------------------|
E|-3-3-3-3-3-3---------|

(refrão 2x)
G|---------------------|
D|---------------------|
A|-5-5-5-5-5-5---------|
E|---------------------|

G|---------------------|
D|---------------------|
A|---------------------|
E|-5-5-5-5-5-5---------|

G|---------------------|
D|---------------------|
A|---------------------|
E|-2-2-2-2-2-2---------|

G|---------------------|
D|---------------------|
A|---------------------|
E|-3-3-3-3-3-3---------|

(segundo verso)
G|-----------------------------------------------------------------------------------|
D|-----------------------------------------------------------------------------------|
A|-5----5/7-----5/7-----------------------5------5/7-------5/7\5-------------------5-|
E|----------3-------7-----3----------7-9-------------3-----------7--------3----7-9---|

(pré-refrão)

(refrão - 2x)

"Mas dessa vez eu já decidi" (2x)
G|--------------------------------------------------|
D|--------------------------------------------------|
A|-2-2-2-2-2-2-------------5-5-5-5-5-5-5------------|
E|-------------3-3-3-3-3-3---------------5-5-5-5-5-5|

(refrão - 2x)

nao to falando que o tab acima ta errado mais Pelo que eu vi no clipe oficial é +- isso:
Baixo entra na parte: E dizer que e você...  31 seg

E dizer que e você...  31 seg:
G|-----------------------------------------------------------------------|
D|-----------------------------------------------------------------------|
A|3-3-3-3----------------------------------------------------------------|
E|--------3-3-3--3--5-5-5--5--7-7-7--7--9-9-9--9--7-7-7--7--3-3-3-3-3-3-3|

E eu vou te esperar... 44 seg:

G|7-7-7-7------------------------------------------|
D|----------7-7-7-7-7-9-9-9-9-9-5-5-5-5-5-5--------|    	2X
A|-------------------------------------------------|
E|-------------------------------------------------|

1:10 Seg: 
G|-----------------------------|
D|-----------------------------|
A|2---------------------------|
E|---0-3-0-5-3-1-1/12/1-|

1:25			1:32		            1:39		
G|-----|		G|-----7-|	G|------|
D|5-6--|		D|---7---|	D|5-6---|
A|----5|		A|5------|	A|-----5|
E|-----|		E|-------|	E|------|

1:46
G|------------------------------------------------------------------------------------|
D|------------------------------------------------------------------------------------|
A|-3-3-3--3---------------------------------------------------------------------------|
E|----------3-3-3---3---5-5-5---5---7-7-7---7---9-9-9---9---7-7-7---7---3-3-3-3-3-3-3-|

2:00
G|7-7-7-7-------------------------------------|
D|----------7-7-7-7-7-9-9-9-9-9-5-5-5-5-5-5---|    	2X
A|--------------------------------------------|
E|--------------------------------------------|

2:28
G|7-7------------|
D|----7----------|    	
A|-------9-9-----|		2X
E|-------------5-|
2:48
G|------------------------------------------|
D|-7-7-7-7-7-9-9-9-9-9-5-5-5-5-5-5----------|    	
A|------------------------------------------|
E|------------------------------------------|

3:00
G|7-7-7-7------------------------------------------|
D|----------7-7-7-7-7-9-9-9-9-9-5-5-5-5-5-5--------|    	
A|-------------------------------------------------|
E|-------------------------------------------------|
00:00 / 00:00
Outros vídeos desta música
Repetir
Outros vídeos desta música
Composição de Koba
Colaboração e revisão:
  • Carlos Conde
  • henrique cirino
  • Luciano Monteiro
7.653 exibições

0 comentários

Ver todos os comentários

Conseguiu tocar?

2 Tocaram 0 Ainda não

Grave um vídeo tocando Levo Comigo e nos envie!

Entre para oCifra Club PRO

Tenha acesso a benefícios exclusivos no App e no Site

  • Chega de anúncios

  • Prioridade de compra em lançamentos

  • Mais recursos no app do Afinador

  • Atendimento Prioritário

  • Descontos nos produtos Cifra Club

  • Ajude a produzir mais conteúdo

00:00 / 00:00

Cifra Club Pro

Aproveite o Cifra Club com benefícios exclusivos e sem anúncios
Cifra Club Pro
Aproveite o Cifra Club com benefícios exclusivos e sem anúncios
OK