Cifra Club

Aprenda

Luiza

Restart

Cifra: Principal (violão e guitarra)
tom: G
(intro)
         C9         G       D4  C9/B (3x)      Am6M G/B C9
E|-----------------------------------------|---------7-------------------7----
B|-----------------------------------------|-----7---------7--------7---------  
G|---2/4--4--2--0h2p0---2/4--4--2--0h2p0---|---7---7----7-----5--7----7------- 
D|--------------------0--------------------|----------------------------------
A|-3---------------------------------------|----------------------------------
E|-----------------------------------------|----------------------------------

C9           G         D4         C9/B
  Enquanto o sol raiar, e as estrelas brilharem
C9        G       D4        C9/B
  A terra existir, o mar me alegrar

E|-----------------------
B|-----------------------
G|--12-12-12-------------  (8x)
D|-----------12----------
A|-----------------------
E|-----------------------

C9         G       D4            C9/B
  Eu te amarei, contigo eu sei e posso afirmar
C9    G      D4        C9/B    Am6M
  Estarei, até o mundo acabar

E|----------------------------
B|----------------------------
G|--12------11-----14---11---- (4x)
D|-----12------12-----12--12--
A|----------------------------
E|----------------------------

    G/B            C9
Se Deus me trouxe aqui, é aqui que eu vou ficar
 Am6M     G/B            C9
Mesmo que todos longe de ti, queiram me ver

C9      G         D4         C9/B            C9
  Eu te amo e pra sempre com você eu quero estar
    G          D4        C9/B
  Viver em meus sonhos é te encontrar
C9   G            D4        C9/B        Am6M  G/B C9
  Te amo e pra sempre com você eu vou estar

  Aqui ou em qualquer lugar

(intro)

(base 2x)

(solo 3x)

C9           G         D4         C9/B
  Enquanto o sol raiar, e as estrelas brilharem
C9        G       D4        C9/B
  A terra existir, o mar me alegrar

E|-----------------------
B|-----------------------
G|--12-12-12-------------  (8x)
D|-----------12----------
A|-----------------------
E|-----------------------

C9         G       D4            C9/B
  Eu te amarei, contigo eu sei e posso afirmar
C9    G      D4        C9/B     Am6M
  Estarei, até o mundo acabar

E|----------------------------
B|----------------------------
G|--12------11-----14---11---- (4x)
D|-----12------12-----12--12--
A|----------------------------
E|----------------------------

  G/B            C9
Se Deus me trouxe aqui, é aqui que eu vou ficar
 Am6M     G/B            C9
Mesmo que todos longe de ti, queiram me ver

C9      G         D4         C9/B            C9
  Eu te amo e pra sempre com você eu quero estar
    G          D4        C9/B
  Viver em meus sonhos é te encontrar
C9   G            D4        C9/B        Am6M  G/B C9
  Te amo e pra sempre com você eu vou estar

  Aqui ou em qualquer lugar

(solo 2)
E|-------------------------------------------------------------------------------------------
B|---10b12(12)--10b12r10-8(8)-8-----8-10b12r10--8(8)------------------- 7h8h10--8/7/8--------
G|-------------------------------7/9------------------7h9p7----------7h9---------------7h9p7-
D|---------------------------------------------------------9-7--7h9--------------------------
A|-------------------------------------------------------------------------------------------
E|-------------------------------------------------------------------------------------------

E|---------------------------
B|-----------7-8-------------
G|-------7-9-----------------
D|-5-7-9---------------------
A|---------------------------
E|---------------------------

C9      G         D4         C9/B            C9
  Eu te amo e pra sempre com você eu quero estar
    G          D4        C9/B
  Viver em meus sonhos é te encontrar
C9   G            D4        C9/B        Am6M  G/B C9
  Te amo e pra sempre com você eu vou estar
                          C9 G D4 C9/B
  Aqui ou em qualquer lugaaar  (3x)
Composição de Koba
Colaboração e revisão:
  • luciano morais
  • Vinicius Dutra
  • mateus nardi
54.156 exibições
    • ½ Tom
    • A
    • Bb
    • B
    • C
    • Db
    • D
    • Eb
    • E
    • F
    • F#
    • G
    • Ab
  • Adicionar à lista

    0 comentários

    Ver todos os comentários

    Conseguiu tocar?

    8 Tocaram 0 Ainda não

    Grave um vídeo tocando Luiza e nos envie!

    00:00 / 00:00
    outros vídeos desta música
    repetir qualidade Automático
    Outros vídeos desta música
    00:00 / 00:00
    Automático

    Cifra Club Pro

    Aproveite o Cifra Club com benefícios exclusivos e sem anúncios
    Cifra Club Pro
    Aproveite o Cifra Club com benefícios exclusivos e sem anúncios
    OK