Cifra Club

Aprenda

Menina Estranha

Restart

Cifra: Principal (violão e guitarra)
tom: A
[Intro] D  A  Bm7  E  
        D  A  E

E|------------------------------------------|
B|------------------------------------------|
G|---6---4-2---2----6---4-2---2-------------|
D|-7---7-----4----7---7-----4---------------|
A|------------------------------------------|
E|------------------------------------------|

                  E
E|----------------0--0----------------------|
B|----------------0--0----------------------|
G|---6---4-2---2--1--1----------------------|
D|-7---7-----4----2--2----------------------|
A|----------------2--2----------------------|
E|----------------0--0----------------------|

[Primeira Parte]

A        F#m      E        Bm
Eu conheci uma menina diferente
   A      F#m         E            Bm
Me apaixonei e foi assim tão de repente
 A        F#m       E        Bm
Nunca pensei que pudesse gostar
   A      F#m         E
De uma garota que só sabe me esnobar

[Pré-Refrão]

          Bm7      D           A
E ela já faz faculdade e eu aqui
      E           Bm7
Aprendendo a dirigir
         D            A   E
Nem sei se vou me formar
       Bm7        D           A
E ela diz que um garotinho assim
  G#m    F#m         Bm7
Que só quer se divertir
       E          A
Nunca vai te conquistar

[Refrão]

                  D
Ela não gosta da minha roupa
A                  E
  Vive falando do meu cabelo
Bm7                    D            A          E
    Reclama sempre do meu estranho jeito de falar
                    Bm7       D
Mas quando beija a minha boca
                  A    G#m  F#m
Perde a cabeça e fica louca
                  Bm7         E        A
É uma questão de tempo até você se entregar

( D  A  Bm7  E )  
( D  A  E )

E|------------------------------------------|
B|------------------------------------------|
G|---6---4-2---2----6---4-2---2-------------|
D|-7---7-----4----7---7-----4---------------|
A|------------------------------------------|
E|------------------------------------------|

                  E
E|----------------0--0----------------------|
B|----------------0--0----------------------|
G|---6---4-2---2--1--1----------------------|
D|-7---7-----4----2--2----------------------|
A|----------------2--2----------------------|
E|----------------0--0----------------------|

[Primeira Parte]

A        F#m      E        Bm
Eu conheci uma menina diferente
   A      F#m         E            Bm
Me apaixonei e foi assim tão de repente
 A        F#m       E        Bm
Nunca pensei que pudesse gostar
   A      F#m         E
De uma garota que só sabe me esnobar

[Pré-Refrão]

          Bm7      D           A
E ela já faz faculdade e eu aqui
      E           Bm7
Aprendendo a dirigir
         D            A   E
Nem sei se vou me formar
       Bm7        D           A
E ela diz que um garotinho assim
  G#m    F#m         Bm7
Que só quer se divertir
       E          A
Nunca vai te conquistar

[Refrão]

                  D
Ela não gosta da minha roupa
A                  E
  Vive falando do meu cabelo
Bm7                    D            A          E
    Reclama sempre do meu estranho jeito de falar
                    Bm7       D
Mas quando beija a minha boca
                  A    G#m  F#m
Perde a cabeça e fica louca
                  Bm7         E        A
É uma questão de tempo até você se entregar

                  D
Ela não gosta da minha roupa
A                  E
  Vive falando do meu cabelo
Bm7                    D            A          E
    Reclama sempre do meu estranho jeito de falar
                    Bm7       D
Mas quando beija a minha boca
                  A    G#m  F#m
Perde a cabeça e fica louca
                  Bm7         E         A
É uma questão de tempo até você me namorar
Compositor não encontrado.
359.688 exibições
    • ½ Tom
    • A
    • Bb
    • B
    • C
    • Db
    • D
    • Eb
    • E
    • F
    • F#
    • G
    • Ab
  • Adicionar à lista

    0 comentários

    Ver todos os comentários

    Conseguiu tocar?

    61 Tocaram 5 Ainda não

    Grave um vídeo tocando Menina Estranha e nos envie!

    00:00 / 00:00
    Outros vídeos desta música
    Repetir Qualidade Automático
    Outros vídeos desta música
    00:00 / 00:00
    Automático

    Cifra Club Pro

    Aproveite o Cifra Club com benefícios exclusivos e sem anúncios
    Cifra Club Pro
    Aproveite o Cifra Club com benefícios exclusivos e sem anúncios
    OK