Cifra Club

Minha Estrela

Restart

Cifra: Principal
exibições 134.578
Tom: G
Intro 2x: G  D  Am  C9

Dedilhado da Intro
       G              D                                    Am            C9
E|----3--3---x-------2--3---x--2h3p2--------------------------------------|
B|----3--3---x-------3--3---x--------0-----------------1--1---x-------3--3|
G|---0---0---x------2---0---x----------0---------------2--2---x-------5--5|
D|---------------0-----------------------------------2----2---x------5---5|
A|-------------------------------------------------0--------------3-------|
E|3-----------------------------------------------------------------------|

Solo No Meio Dos Acordes Do Dedilhado


E|----3p2---------------|
B|---------0------------|
G|-------------0--------|
D|----------------------|
A|----------------------|
E|----------------------|

E|---3-2--0------------|
B|-----------3---------|
G|------------0--------|
D|---------------------|
A|---------------------|
E|---------------------|

G            D
Alguma coisa aconteceu
   Am                          C9


O tempo passou mas não apagou o sentimento
 G           D
Você de novo apareceu
Am             EM
E fez bater mais forte o lado esquerdo do meu peito

Am             G
Eu acho que endoidei
         C9
Eu quero te ligar
    D
O que falar eu não sei
Am           G
Mas não vou ficar aqui,
       C9        D
Eu preciso te dizer

Refrão:
      G            D
Eu te amo, eu te quero
             Am
Como uma estrela que
               C9
Fez não se apagar em mim
    G        D
O amor me pegou
               Am                     C9
Guardo no meu peito o que só me faz querer sorrir...

Com você.

Intro 2x: G  D  Am  C9

G            D
Alguma coisa aconteceu
   Am                  C9
O tempo passou mas não apagou o sentimento
 G           D
Você de novo apareceu
Am                     C9
E fez bater mais forte o lado esquerdo do meu peito

Am             G
Eu acho que endoidei
         C9
Eu quero te ligar
    D
O que falar eu não sei
Am           G/B
Mas não vou ficar aqui,
       G       D
Eu preciso te dizer

Refrão 2x:
      G            D
Eu te amo, eu te quero
             Am
Como uma estrela que
               C9
Fez não se apagar em mim
    G        D
O amor me pegou
               Am                     C9
Guardo no meu peito o que só me faz querer sorrir

Ponte:
Am
Ainda temos muito pra viver
   G
Algum momento só eu e você
      G
Meu amor vai te guiar,
         D
Deixa a vida nos levar

Am
Talvez um dia eu vá te encontrar
    G
Um novo tempo, um outro lugar
          C9
Nossa estrela vai brilhar
          D
Nossa estrela vai brilhar

(Refrão)

  G           D
E eu te amo, eu te quero
             
Como uma estrela que
               D
Fez não se apagar em mim
    A        E4
O amor me pegou
               Bm                     D
Guardo no meu peito o que só me faz querer sorrir
     G           D
Eu te amo, eu te quero
            G
Como uma estrela que
               D
Fez não se apagar em mim
    A        EM
O amor me pegou
               G                   D (deixa soar)
Guardo no meu peito o que só me faz querer sorrir...

Com você

0 comentários

    mostrar mais comentários

    Conseguiu tocar?

    38tocaram1ainda não

    Grave um vídeo tocando Minha Estrela e mande pra gente!

    00:00 / 00:00
    outros vídeos desta música
    repetirqualidadeautomática
    Outro vídeos desta música
      00:00 / 00:00
      automática
      OK