Cifra Club

Sunflower

Rex Orange County

Cifra: Principal (violão e guitarra)
Selo Cifra Club: esta cifra foi revisada para atender aos critérios oficiais da nossa Equipe de Qualidade.
tom: F#m
[Intro]

     G#7(9) G#m7(9)  C#7(13)                 F#7M                F#7              B7M  (↓)
E|--------------------------------------------------------------------------------------x---|
B|---11-----11-------11~--------11--12--14---11~----11--12--14---11~---11--9--7---7~----7---|
G|---11-----11-------10~--------10-----------10~----10-----------9~----9----------8~----8---|
D|---10-----9--------9~---------9------------11~----11-----------11~---11---------8~----8---|
A|---11-----11-------------------------------9~-----9------------9~----9----------------x---|
E|-------------------9~---------9-------------------------------------------------7~----7---|

     Bbm7                   B7M           Bb4/C         B7M
E|------6-----------------------------------------------------------------------------------|
B|---6-----6----6~~-----6---------7-------7---------7---7~----------------------------------|
G|---6----------7~~--7----------8---8-----8--8----------8~----------------------------------|
D|---6----------0-------------8-----------8----8--------8~----------------------------------|
A|------------------------------------------------------------------------------------------|
E|---6----------------------7-------------8-------8-----7~----------------------------------|

     G#7(9) G#m7(9)  C#7(13)                 F#7M                F#7              B7M  (↓)
E|--------------------------------------------------------------------------------------x---|
B|---11-----11-------11~--------11--12--14---11~----11--12--14---11~---11--9--7---7~----7---|
G|---11-----11-------10~--------10-----------10~----10-----------9~----9----------8~----8---|
D|---10-----9--------9~---------9------------11~----11-----------11~---11---------8~----8---|
A|---11-----11-------------------------------9~-----9------------9~----9----------------x---|
E|-------------------9~---------9-------------------------------------------------7~----7---|

     Bbm7              B7M       Bb4/C     B7M
E|------------------------------------------------------------------------------------------|
B|---6~-------6~-------7~---7----7~--------7~-----------------------------------------------|
G|---6~-------7~-------8~--------8~--------8~-----------------------------------------------|
D|---6~-------0--------8~--------8~--------8~-----------------------------------------------|
A|------------------------------------------------------------------------------------------|
E|---6~----------------7~--------8~--------7~-----------------------------------------------|

I want to know
Where I can go
When you're not around
And I'm feeling down
So won't you stay for a moment
So I can say
I, I need you so
'Cause right now you know that nothing here's new
And I'm obsessed with you
Then I fell to the ground
And she smiled at me and said


                      F#7M 
I don't wanna see you crying 
                  D#m7(b5)         C#7M 
You don't have to feel this emptiness
            Fm7(b5)                     D#m7    D#m7(b5) 
She said I love you till the day that I die
 G#m7(b5)      F#7M 
Maybe she's right
                    D#m7(b5)            C#7M 
Cause I don't wanna feel like I'm not me
          Fm7(b5)                    D#m7  
And to be honest I don't even know why
 D#m7(b5)                         G#m7(b5)   F#7M 
I let myself get down in the first place

          D#m7(b5)           C#7M 
Trying to keep my mind at bay
 Fm7(b5)                     D#m7   
Sunflowers still grows at night
 D#m7(b5)                                   G#m7(b5)    F#7M 
Waiting for a minute till the sun's seen through my eyes
        D#m7(b5)           C#7M 
Make it down down, do-do-down
       Fm7(b5)          D#m7 
Make it do-down, du du du
 D#m7(b5)                                            F#7M 
Waiting for a minute till the sun's seen through my eyes

F#7M
You know you need to get yourself to sleep and dream
     D#m7(b5)         C#7M 
And dream of you and I
           Fm7(b5)                D#m7 
There's no need to keep an open eye
 D#m7(b5)                                 
I promise I'm the one for you
                    G#m7(b5)         F#7M 
Just let me hold you in these arms tonight
F#7M
I'm lucky to be me
       D#m7(b5)         C#7M 
And you can see it in my face
            Fm7(b5)                      D#m7 
Back when I fucked my shit up too many times
           D#m7(b5)                        G#m7(b5)   F#7M 
Why would I let myself get down in the first place

F#7M     D#m7(b5)           C#7M 
Trying to keep my mind at bay
 Fm7(b5)                     D#m7   
Sunflowers still grows at night
 D#m7(b5)                                   G#m7(b5)    F#7M 
Waiting for a minute till the sun's seen through my eyes
        D#m7(b5)           C#7M 
Make it down down, do-do-down
       Fm7(b5)          D#m7 
Make it do-down, du du du
 D#m7(b5)                                            F#7M 
Waiting for a minute till the sun's seen through my eyes

And so she sat me down and told me that I didn't have to cry

Said I didn't need to get down and feel empty inside

And told me that she love me for as long as she's alive

And well, maybe she's right, cause I hate it when I feel like I'm not me

See, I honestly, don't even know why

I, I honestly don't even know why

 F#7M     D#m7(b5)           C#7M 
Trying to keep my mind at bay
 Fm7(b5)                     D#m7   
Sunflowers still grows at night
 D#m7(b5)                                   G#m7(b5)    F#7M 
Waiting for a minute till the sun's seen through my eyes
        D#m7(b5)           C#7M 
Make it down down, do-do-down
       Fm7(b5)          D#m7 
Make it do-down, du du du
 D#m7(b5)                                            F#7M 
Waiting for a minute till the sun's seen through my eyes
Outros vídeos desta música
136.061 exibições
  • Simplificar cifra
    • ½ Tom
    • Am
    • Bbm
    • Bm
    • Cm
    • C#m
    • Dm
    • Ebm
    • Em
    • Fm
    • F#m
    • Gm
    • G#m
  • Adicionar à lista

Afinação da cifra

Afinador online

    0 comentários

    Ver todos os comentários

    Conseguiu tocar?

    31 Tocaram 41 Ainda não

    Grave um vídeo tocando Sunflower e nos envie!

    Entre para o Cifra Club PRO

    Tenha acesso a benefícios exclusivos no App e no Site

    • Chega de anúncios

    • Mais recursos no app do Afinador

    • Atendimento Prioritário

    • Aumente seu limite de lista

    • Ajude a produzir mais conteúdo

    Cifra Club Pro

    Aproveite o Cifra Club com benefícios exclusivos e sem anúncios
    Cifra Club Pro
    Aproveite o Cifra Club com benefícios exclusivos e sem anúncios
    OK