Cifra Club

Emerald Sword

Rhapsody

Cifra: Principal (violão e guitarra)
tom: C
Intro: 1:15
 
  B5                                                      B5                
||-------------------------|----------------------------|-------------------------|--------------------------| 
||-0--3p0-5p0--7p0--8p0-5~-|--8p0--7p0-----7-5----------|-0--3p0-5p0--7p0--8p0-5~-|--8p0--7p0-----7----------| 
||-------------------------|------------7~-----7-6------|-------------------------|-----------7~-------6--4~-|
||-------------------------|-----------------------9-7~-|-------------------------|------------------7-------| 
||-------------------------|----------------------------|-------------------------|--------------------------| 
||-------------------------|----------------------------|-------------------------|--------------------------| 
 |                                                                                                           |
 |-------------------------|----------------------------|-------------------------|--------------------------| 
 |-0--7p0-8p0-10p0-12p0-8~-|-12p0-10p0-7~-10-8-7--------|-0--7p0-8p0-10p0-12p0-8~-|-12p0-10p0-7~-10----------|  
 |-------------------------|---------------------9-7-6~-|-------------------------|--------------------9-----| 
 |-------------------------|----------------------------|-------------------------|-----------------11---12~-|  
 |-------------------------|----------------------------|-------------------------|--------------------------|  
 |-------------------------|----------------------------|-------------------------|--------------------------|

B5 B5                                                     B5                
 |-------------------------|----------------------------|-------------------------|--------------------------| 
 |-0--3p0-5p0--7p0--8p0-5~-|--8p0--7p0-----7-5----------|-0--3p0-5p0--7p0--8p0-5~-|--8p0--7p0-----7----------| 
 |-------------------------|------------7~-----7-6------|-------------------------|-----------7~-------6--4~-|
 |-------------------------|-----------------------9-7~-|-------------------------|------------------7-------| 
 |-------------------------|----------------------------|-------------------------|--------------------------| 
 |-------------------------|----------------------------|-------------------------|--------------------------| 
 |                                                                                                           |
 |-------------------------|----------------------------|-------------------------|--------------------------| 
 |-0--7p0-8p0-10p0-12p0-8~-|-12p0-10p0-7~-10-8-7--------|-0--7p0-8p0-10p0-12p0-8~-|-12p0-10p0-7~-10----------|  
 |-------------------------|---------------------9-7-6~-|-------------------------|--------------------9-----| 
 |-------------------------|----------------------------|-------------------------|-----------------11---12~-|  
 |-------------------------|----------------------------|-------------------------|--------------------------|  
 |-------------------------|----------------------------|-------------------------|--------------------------|

B5 B5                                                  B5 B5                
 |-------------------------|----------------------------|-------------------------|--------------------------| 
 |-0--3p0-5p0--7p0--8p0-5~-|--8p0--7p0-----7-5----------|-0--3p0-5p0--7p0--8p0-5~-|--8p0--7p0-----7----------| 
 |-------------------------|------------7~-----7-6------|-------------------------|-----------7~-------6--4~-|
 |-------------------------|-----------------------9-7~-|-------------------------|------------------7-------| 
 |-3-3-3-3-3-3-8-8-8-8-8-8-|-6-6-6-6-6-6---5----3----1--|-3-3-3-3-3-3-8-8-8-8-8-8-|-6-6-6-6-6-6---1---5---3--|
 |-------------------------|----------------------------|-------------------------|--------------------------| 

B5 B5                                                  B5 B5                
 |-------------------------|----------------------------|-------------------------|--------------------------| 
 |-0--3p0-5p0--7p0--8p0-5~-|--8p0--7p0-----7-5----------|-0--3p0-5p0--7p0--8p0-5~-|--8p0--7p0-----7----------| 
 |-------------------------|------------7~-----7-6------|-------------------------|-----------7~-------6--4~-|
 |-------------------------|-----------------------9-7~-|-------------------------|------------------7-------| 
 |-3-3-3-3-3-3-8-8-8-8-8-8-|-6-6-6-6-6-6---5----3----1--|-3-3-3-3-3-3-8-8-8-8-8-8-|-6-6-6-6-6-6---1---5---3--|
 |-------------------------|----------------------------|-------------------------|--------------------------|

 
 |---------15-13~----13-|---------------------11-------------|----------15-13~-----13-| 
 |------15--------------|16-15-13-11-15-13-11----15-13-11----|-------15---------------| 
 |12-15-----------------|-----------------7--7------------14~|-12-15------------------| 
 |----------------------|-----------------7--7---------------|------------------------| 
 |----------------------|-----------------5--5---------------|------------------------| 
 |3--3--3--3--1-1-1-1-1-|-1--1--1--1---1---------------------|-3--3--3--3--1-1-1-1--1-| 
 
 |-20-18-17-15-18-17-15-13-15~----|-----17-18~-----22-|-23-22-20--------------------| 
 |-----------------------------18-|-20~--------18~----|----------23-22~-------------| 
 |--------------------------------|-------------------|--------------7--7-----------| 
 |--------------------------5--5--|-------------------|--------------7--7-----------| 
 |--------------------------5--5--|-------------------|--------------5--5-----------| 
 |-1--1--1--1---1-----------3--3--|-3-3-3-3--1-1-1-1-1|-1-1-1-1--1------------------| 
 
 |-------------------------25-20----20-|-23-22-20-18-22-20-18-17-----|| 
 |-22p20----20-22p20----20--*----22----|-------------------------20~-|| 
 |-------23----------23----------------|-----------------------------|| 
 |-------------------------------------|-----------------------5--5--|| 
 |-------------------------------------|-----------------------5--5--|| 
 |-3--3--3--3---1--1--1--1---1---------|--1--1--1--1----1------3--3--||  
 





  C5          G5          Eb5          Bb5            F5         C5          F#5          G5
|--------------------------------------------------------------------------------------------------|
|--------------------------------------------------------------------------------------------------|
|--------------------------------------------------------------------------------------------------| 
|-5-----------------------8------------------8-6-----------------5--------------------------5-3----|
|-3333333333335-----------66666666666668----------9-8-3----------3333333333334------------5-----6--| 
|-------------333333333333-------------6666-6---------11111111111------------222222222222-3--------|
 
  C5             G5          Eb5        Bb5       F5             C5         F#5       G5
  I crossed the valleys the dust of midlands to search for the third key to open the gates 
   C5              G5         Eb5      Bb5     F5         C5              F#5               G5
  Now I’m near the altar the secret inside as legend told my beloved sun light the dragon’s eyes 

  Ab5  Bb5  C5   Db5  Bb5  C5   Ab5  Bb5  C5   Db5  Bb5  C5
|-----------------------------|-----------------------------| 
|-----------------------------|-----------------------------| 
|-----------------------------|-----------------------------| 
|-6----8----10---11---8----10-|-6----8----10---11---8----10-| 
|-6----8----10---11---8----10-|-6----8----10---11---8----10-| 
|-4----6----8----9----6----8--|-4----6----8----9----6----8--|

          Ab5 Bb5     C5        Db5   Bb5 C5      Ab5   Bb5       C5            Db5     Bb5 C5
  On the way to the glory I’ll honor my sword to serve right and justice.. and justice for  all 

|-----------------------------|
|-----------------------------|
|-5--5--7---8---5--5--7---8---|
|-5--5--7---8---5--5--7---8-3-|
|-3--3--5---6-1-3--3--5---6-1-|
|-----------------------------|

  C5          G5          Eb5          Bb5            F5         C5          F#5          G5
|--------------------------------------------------------------------------------------------------|
|--------------------------------------------------------------------------------------------------|
|--------------------------------------------------------------------------------------------------| 
|-5-----------------------8------------------8-6-----------------5--------------------------5-3----|
|-3333333333335-----------66666666666668----------9-8-3----------3333333333334------------5-----6--| 
|-------------333333333333-------------6666-6---------11111111111------------222222222222-3--------|
 
   C5      G5           Eb5          Bb5        F5         C5      F#5             G5
  Finally happened the sun lit their eyes the spell was creating strange games of light 
    C5              G5        Eb5           Bb5 F5              C5                  F#5              G5
  Thanks to hidden mirrors I found my lost way  over the stones I reached the place it was a secret cave 

Ab5  Bb5  C5   Db5  Bb5  C5   Ab5  Bb5  C5   Db5  Bb5  C5
|-----------------------------|-----------------------------| 
|-----------------------------|-----------------------------| 
|-----------------------------|-----------------------------| 
|-6----8----10---11---8----10-|-6----8----10---11---8----10-| 
|-6----8----10---11---8----10-|-6----8----10---11---8----10-| 
|-4----6----8----9----6----8--|-4----6----8----9----6----8--|

        Ab5   Bb5   C5         Db5 Bb5     C5       Ab5   Bb5     C5      Db5   Bb5    C5
  In a long bloody battle that prophecies told the light will prevail hence wisdom is gold 
  
  Ab5  Eb5  F5   C5   Db5  Eb5  Ab5   Ab5  Eb5  F5   C5   Db5  Eb5  Ab 
|----------------------------------------------------------------------|
|----------------------------------------------------------------------| 
|----------------------------------------------------------------------| 
|------8---------5----6----8---------------8----10---5----6----8-------| 
|-6----6----3----3----4----6----6-----6----6----8----3----4----6----6--| 
|-4---------1-------------------4-----4-----------------------------4--| 

         Ab5          Eb5          F5   C5            Db5          Eb5           Ab5
For the king for the land for the mountains for the green valleys where dragons fly 
           Ab5      Eb5      F5            C5          Db5           Eb5       Ab
For the glory the power to win the black lord I will search for the emerald sword 





-|-----------------------------------|------------------------------------|------------------------------------|
-|-----------------------------------|------------------------------------|------------------------------------| 
-|-----------5-----------------5-----|------------------------------------|------------------------------------| 
-|-3----6----5-------3----6----5-----|----------------------------6---6---|----------------------------6---6---| 
-|-3----6----3-------3----6----3-----|-------------------33333333-4-4-4-6-|-------------------33333333-4-4-4-6-| 
-|-1----4------------1----4----------|-11111111-44444444------------2---4-|-11111111-44444444------------2---4-| 

W/the duet 2X 

|-15-------15-15----16-15-16-18-16-18-14-15-16-13-------| 
|----16-18-------16-------------------------------17-16-| 
|-------------------------------------------------------| 
|-------------------------------------------------------| 
|-------------------------------------------------------| 
|-------------------------------------------------------| 

|-15-------15-15----16-15-16-18-20-18-16-15-16-15----15------------------| 
|----16-18-------16-------------------------------18----18---------------| 
|----------------------------------------------------------16h17h16h17h16| 
|------------------------------------------------------------------------| 
|------------------------------------------------------------------------| 
|------------------------------------------------------------------------|
 
 
|----------------------------|
|----------------------------|
|----5-----------5-----------|
|-5--3--5-----5--3--4--5---4-|
|-3-----3--5--3-----2--3---2-|
|----------3-----------------|

  C5          G5          Eb5          Bb5            F5         C5          F#5          G5
|--------------------------------------------------------------------------------------------------|
|--------------------------------------------------------------------------------------------------|
|--------------------------------------------------------------------------------------------------| 
|-5-----------------------8------------------8-6-----------------5--------------------------5-3----|
|-3333333333335-----------66666666666668----------9-8-3----------3333333333334------------5-----6--| 
|-------------333333333333-------------6666-6---------11111111111------------222222222222-3--------|
 
  C5      G5      Eb5          Bb5   F5             C5          F#5           G5
  Only a warrior with a clear heart could have the honor to be kissed by the sun 
   C5        G5            Eb5         Bb5 F5              C5             F#5               G5
  Yes, I’m that warrior I followed my way led by the force of cosmic soul I can reach the sword 


Ab5  Bb5  C5   Db5  Bb5  C5   Ab5  Bb5  C5   Db5  Bb5  C5
|-----------------------------|-----------------------------| 
|-----------------------------|-----------------------------| 
|-----------------------------|-----------------------------| 
|-6----8----10---11---8----10-|-6----8----10---11---8----10-| 
|-6----8----10---11---8----10-|-6----8----10---11---8----10-| 
|-4----6----8----9----6----8--|-4----6----8----9----6----8--|

          Ab5 Bb5     C5        Db5   Bb5 C5      Ab5   Bb5       C5            Db5     Bb5 C5
  On the way to the glory I’ll honor my sword to serve right and justice.. and justice for  all

           Ab5          Eb5          F5   C5            Db5          Eb5           Ab5
  For the king for the land for the mountains for the green valleys where dragons fly 
             Ab5      Eb5      F5            C5          Db5           Eb5       Ab
  For the glory the power to win the black lord I will search for the emerald sword 

           Ab5          Eb5          F5   C5            Db5          Eb5           Ab5
  For the king for the land for the mountains for the green valleys where dragons fly 
             Ab5      Eb5      F5            C5          Db5           Eb5       Ab
  For the glory the power to win the black lord I will search for the emerald sword
Composição de Alessandro Staropoli / Luca Turilli
Colaboração e revisão:
  • Lucas
23.387 exibições
    • ½ Tom
    • A
    • Bb
    • B
    • C
    • Db
    • D
    • Eb
    • E
    • F
    • F#
    • G
    • Ab
  • Adicionar à lista

    0 comentários

    Ver todos os comentários

    Conseguiu tocar?

    3 Tocaram 0 Ainda não

    Grave um vídeo tocando Emerald Sword e nos envie!

    00:00 / 00:00
    Outros vídeos desta música
    Repetir Qualidade Automático
    Outros vídeos desta música
    00:00 / 00:00
    Automático

    Cifra Club Pro

    Aproveite o Cifra Club com benefícios exclusivos e sem anúncios
    Cifra Club Pro
    Aproveite o Cifra Club com benefícios exclusivos e sem anúncios
    OK