Cifra Club

Virgin Skies

Rhapsody

Cifra: Principal (violão e guitarra)
tom: D
Acoustic Guitar

E|--3-3---3---3-1---1---------------3---3---3-1---1---------------|
B|----4-4---4---3-3---4-3-1-3-0-----4-4---4---3-3---3-1-0-4-------|
G|----5---------3-----5-----4---0---5---------3-----3-----5-------|  X 2
D|----5---------3-----5-----0-------5---------3-----0-----5-------|
A|----------------------5-3---------------------------------------|
E|----------------------------------------------------------------|

(Flute start here)
E|--------------3---3-3---8-6--------------------------|
B|--4-4-4---4---4-4---4-4---8---8-4---4-3---3-1--------|
G|----5---5---5-5-----3-----8-8---5-5---4-4------------|
D|----5---------------------8-----6-----5--------------|
A|-----------------------------------------------------|
E|-----------------------------------------------------|

E|--3-3---3---3-1---1---------------3---3---3-1---1---------------|
B|----4-4---4---3-3---4-3-1-3-0-----4-4---4---3-3---3-1-0-4-------|
G|----5---------3-----5-----4---0---5---------3-----3-----5-------|    
D|----5---------3-----5-----0-------5---------3-----0-----5-------|
A|----------------------5-3---------------------------------------|
E|----------------------------------------------------------------|

E|--3-3---3---3-1---1---------------3---3---3-1---1--------------------|
B|----4-4---4---3-3---4-3-1-3-0-----4-4---4---3-3---3-1-0-------4-4----|
G|----5---------3-----5-----4---0---5---------3-----3-----------5-5----| 
D|----5---------3-----5-----0-------5---------3-----0---------1-5-5----|
A|----------------------5-3---------------------------------3-----3----|
E|--------------------------------------------------------3------------|
00:00 / 00:00
Outros vídeos desta música
Repetir
Outros vídeos desta música
Composição de Alessandro Staropoli / Luca Turilli
Colaboração e revisão:
  • Taino Vieira
1.188 exibições
    • ½ Tom
    • A
    • Bb
    • B
    • C
    • Db
    • D
    • Eb
    • E
    • F
    • F#
    • G
    • Ab
  • Adicionar à lista

    0 comentários

    Ver todos os comentários

    Conseguiu tocar?

    0 Tocaram 0 Ainda não

    Grave um vídeo tocando Virgin Skies e nos envie!

    Entre para oCifra Club PRO

    Tenha acesso a benefícios exclusivos no App e no Site

    • Chega de anúncios

    • Prioridade de compra em lançamentos

    • Mais recursos no app do Afinador

    • Atendimento Prioritário

    • Descontos nos produtos Cifra Club

    • Ajude a produzir mais conteúdo

    00:00 / 00:00

    Cifra Club Pro

    Aproveite o Cifra Club com benefícios exclusivos e sem anúncios
    Cifra Club Pro
    Aproveite o Cifra Club com benefícios exclusivos e sem anúncios
    OK