Cifra Club

When Demons Awake

Rhapsody

Cifra: Principal (violão e guitarra)
tom: D
E|-----------------------------------------------------------------------------------|
B|-----------------|-----------------------------------------------------------------|
G|--Strings-Intro--|-----/-2-------/-6-------/-2------/-9----------/-2--------/-6----|
D|----(9-sec)------|---2-/-2-----7-/-6-----2-/-2----7-/-9---8~---2-/-2------7-/-6----|
A|-----------------|---2-/-0-----7-/-4-----2-/-0----7-/-7---8~---2-/-0------7-/-4----|
E|---------------------0---------5---------0--------5-------6~---0----------5--------|

                                Riff 1
E|-----------------------------------------------------------------------------------|
B|----------------------------|------------------------------------------------------|
G|----/-2------/-9------------|*-----------------------------------------------------|
D|--2-/-2----7-/-9---8~-------|*-----------------------------------------------------|
A|--2-/-0----7-/-7---8~-------|---0-2p0-2p0-3p0-3p0-0-0-/5-5-3-3-2-2--0-2p0-2p0-3p0-3|
E|--0--------5-------6~--x----------------------------------------------------------|
                                pm..................................................

E|-----------------------------------------------------------------------------------|
B|-----------------------------------------------------------------------------------|
G|-----------------------------------------------------------------------------------|
D|------------------------------------------/2-2-------------------------------------|
Ap0-0-0/2-2-0------0-2p0-2p0-3p0-3p0-0-0------5-5-3-3-/4-4-7-7-6-6-7-7--6-6-9-9-7-|
E|---------------4-4-----------------------------------------------------------------|
 ...................................................................................

                                   x4
E|-----------------------------------------------------------------------------------|
B|-------------------------------------|---------------------------------------------|
G|-----------------------------/-11~--*|---------------------------------------------|
D|-----------------------------/-11~--*|---------------------------------------------|
A|-7-9-9--7-7-11-11-9-9-11-11--/-9~----|------------------/2-2-5-5-3-3-5-5-/3-3-7-7-5|
E|----------------------------------------5-5-8-8-7-7-8-8----------------------------|
 ...........................|           pm..........................................

                                                                        (end Riff 1)
E|-----------------------------------------------------------------------------------|
B|-----------------------------------------------------------------------------------|
G|--------/-7~-----------------------------------------------7h10p9h10---------------|
D|--------/-7~----------------9h12p10h12-------------9h10h12-----------9h12p10h12---|
A|-5-7-7--/-5~---------------------------8-8-8-8-8-8---------------------------------|
E|--------------4-4-4-/7-7-7---------------------------------------------------------|
 ......|      pm...........|           pm..........|

  Guitar 1                                              (end Intro)
E|--17p12----------12h1712p8---------8h12/13p10----------------------||
B|--------13----13------------10---10------------12-------------------||
G|-----------14------------------9------------------13p10-------------||
D|--------------------------------------------------------12----------||
A|-----------------------------------------------------------14p11~~--||
E|--------------------------------------------------------------------||
  Guitar 2                                                           ||  Verses 1&2
E|--------------------------------------------------------------------||-------------|
B|--------------------------------------------------------------------||-------------|
G|--------------------------------------------------------------------||*------------|
D|---7----------------7------------------6-----------------/-9~~---||*------------|
A|---7----------------7------------------5-----------------/-8~~---||--0-0-0-0-0-0|
E|---5----------------5------------------4-----------------/-7~~---||-------------|
                                                                        pm..........

E|-----------------------------------------------------------------------------------|
B|-----------------------------------------------------------------------------------|
G|-----------------------------------------------------------------------------------|
D|-----------------------------------------------------------------------------------|
A|-0-0-0-0-0-0-0-0-0-0-8p7-0-12p11-0-8-7--0-0-0-0-0-0-0-0-0-0-0-0-0-0-0-0--------3h5|
E|--------------------------------------------------------------------------4h5h7----|
 ....................|                   pm..............................|

E|-----------------------------------------------------------------------------------|
B|-----------------------------------------------------------------------------------|
G|-----------------------------------------------------------------------------------|
D|---3h6h7p6p3-----------------------------------------------------------------------|
Ah7-----------7p5p3---------0-0-0-0-0-0-0-0-0-0-0-0-0-0-0-0-8p7-0-12p11-0-8-7--0-0-|
E|-------------------7p5p4-----------------------------------------------------------|
                           pm..............................|
                                _______________ ____________________________________
                               |1.             |2.
E|------------------------------|---------------|------------------------------------|
B|------------------------------|---------------|------------------------------------|
G|------------------------------|---------------|------------------------------/10p9p|
D|------------------------------|---------------|-----------------------6-7-9--------|
A|-0-0-0-0-0-0-0-0-0-0-0-0-0-0--|--------5-7-8--|---------5-7-8--5--7-8--------------|
E|------------------------------|-4--5-7--------|--4--5-7----------------------------|
 ............................|
 ___________________________________________ _________________ _____________________
                                            |3.               |4.
E|-------------------------------------------|-----------------|---------------------|
B|-------------------------------------------|-----------------|---------------------|
G7-----------------------------------------*|----------------*|---------------------|
D|--9p7p6-9p7p6-------------------7~--------*|----------------*|---------------------|
A|--------------8-7-5-8-7-5-------7~---/x---|---------5-7-8---|---------5-7-8--5--7-|
E|--------------------------7-5-4-5~---/x---|--4--5-7---------|--4--5-7-------------|
              pm................|
 __________
           |   Chorus
E|----------||-----------------------------------------------------------------------|
B|----------||-----------------------------------------------------------------------|
G|----------||---2-------------------7-------------------------2----------------/-2--|
D|---6-7-9--||---2------2------5-----7---------2-----3-----4---4---2----2-------/-2--|
A|-8--------||---0------2------4-----5---0-----2-----3-----3---3---2----2-------/-0--|
E|----------||----------0------3-----------3p1-0-----1-----2-------0----0---x-------|

                                                                        Lead riff
E|------------------------------------------------------------------------12-17-16-17|
B|----------------------------------------------------------|----------|-------------|
G|------------------7-------------------------2-------------|--Riff-1--|-------------|
D|----2------5------7---------2-----3-----4---4---2---------|----------|-------------|
A|----2------4------5---0-----2-----3-----3---3---2---------|----------|-------------|
E|----0------3------------3p1-0-----1-----2-------0----x----------------------------|

E|-----------------------------------------------------------------------------------|
B|-13-17-15-17-/15-18-17-18-13-17-15-17-13-17-15-17---------------------------------|
G|---------------------------------------------------13-16-14-16---------------------|
D|---------------------------------------------------------------12-15-14-15---------|
A|---------------------------------------------------------------------------12-15-14|
E|-----------------------------------------------------------------------------------|

                                 Guitar Solo
E|---------------------------------17p12----12----------------------------12h17p12---|
B|------------|-----------------|--------14----14----------------------14----------14|
G|------------|--Keyboard-Solo--|-----------------14----------------14---------------|
D|-----A.H.---|-----------------|--------------------14----------14------------------|
A|-15-11~~---|-----------------|-----------------------16p12h16---------------------|
E|-----------------------------------------------------------------------------------|

E|-----/12p7---------7---------------------7h12p7------/14p10----10------------------|
B|-----------10p9h10---9-----------------9--------9-----------12----12---------------|
G|-14--------------------9-------------9------------9------------------11----------11|
D|-------------------------9---------9------------------------------------12----12---|
A|---------------------------11p7h11-----------------------------------------14------|
E|-----------------------------------------------------------------------------------|

E|----10h14p10---------------------------------------------------------/-17p12----12-|
B|-12----------12----/14p10----10----------------------10h14p10----------------14----|
G|----------------11--------11----11----------------11----------11-------------------|
D|-----------------------------------11----------11----------------11----------------|
A|--------------------------------------12----12-------------------------------------|
E|-----------------------------------------14----------------------------------------|

E|----------------------------12h17p12--------/12p7---------7---------------------7-h|
B|-14----------------------14----------14-----------10p9h10---9-----------------9----|
G|----14----------------14----------------14--------------------9-------------9------|
D|-------14----------14-------------------------------------------9---------9--------|
A|----------16p12h16------------------------------------------------11p7h11----------|
E|-----------------------------------------------------------------------------------|

E|-12p7------/14p10----10----------------------10h14p10------------------------------|
B|------9-----------12----12----------------12----------12----/14-11--------------14-|
G|--------9------------------11----------11----------------11--------13-11~-13-14----|
D|------------------------------12----12---------------------------------------------|
A|---------------------------------14------------------------------------------------|
E|-----------------------------------------------------------------------------------|

E|-14-13~~---------------------------------------------------------------------------|
B|----------|------------------------------------|-----------------------------------|
G|----------|------------------------------------|*----------------------------------|
D|----------|------------------------------------|*----------------------------------|
A|----------|---1~----------6~---1~---------6~---|---2-2-2-2-2-2-2-2-/-6-6-6-6-6-6-6-|
E|------------------4~--7~--6~------4~--7~--6~---------------------------------------|
                                                   pm...............................

E|-----------------------------------------------------------------------------------|
B|-----------------------------------------------------------------------------------|
G|-----------------------------------------------------------------------------------|
D|-----------------------------------------------------------------------------------|
A|-6--2-2-2-2-2-2-2-2---------------2-2-2-2-2-2-2-2-/-6-6-6-6-6-6-6-6-2-2-2-2-2-2-2|
E|----------------------2~-4~-5~-2~--------------------------------------------------|
 ....................|             pm...............................................

            x2
E|-----------------------------------------------------------------------------------|
B|--------------|-----------------|--------------------------------------------------|
G|-------------*|--Keyboard-Solo--|--------------------------------------------------|
D|-------------*|-----------------|--------------------------------------------------|
A|-2---0~--4~---|-----------------|--7-5-3-------8-7-5-------7-5-3-------5-3-2-0-----|
E|-----2~--2~------------------------------7-5-4-------8-7-5-------7-5-4---------4-1-|
 ..|                               pm...............................................

                                                        Verse 3
E|-----------------------------------------------------------------------------------|
B|-----------------------------------------------------|-----------------------------|
G|-----------------------------------------------------|*----------------------------|
D|--------------------------------------6-------6----|*----------------------------|
A|-/7-5-3-------8-7-5-------7-5-3-------5-------5----|---0-0-0-0-0-0-0-0-0-0-0-0-0-|
E|--------7-5-4-------8-7-5-------7-5-4-4-------4----------------------------------|
 .....................................|                  pm.........................

E|-----------------------------------------------------------------------------------|
B|-----------------------------------------------------------------------------------|
G|-----------------------------------------------------------------------------------|
D|-----------------------------------------------------------------------3h6h7p6p3---|
A|-0-0-0-8p7-0-12p11-0-8-7--0-0-0-0-0-0-0-0-0-0-0-0-0-0-0-0-------3h5h7-----------7p|
E|-----------------------------------------------------------4h5h7-------------------|
 ......|                   pm..............................|

E|-----------------------------------------------------------------------------------|
B|-----------------------------------------------------------------------------------|
G|-----------------------------------------------------------------------------------|
D|-----------------------------------------------------------------------------------|
A5p3--------0-0-0-0-0-0-0-0-0-0-0-0-0-0-0-0-8p7-0-12p11-0-8-7--0-0-0-0-0-0-0-0-0-0-|
E|----7p5p4--------------------------------------------------------------------------|
           pm..............................|                   pm...................
                _________________ ______________________________
               |1.               |2.                            |               Chor
E|--------------|-----------------|------------------------------||------------------|
B|--------------|-----------------|------------------------------||------------|-----|
G|--------------|----------------*|------------------------------||---Chorus---|--2--|
D|--------------|----------------*|-----------------------6-7-9--||------------|--2--|
A|-0-0-0-0-0-0--|---------5-7-8---|---------5-7-8--5~-7-8--------||------------|--0--|
E|--------------|--4~-5-7---------|--4~-5-7----------------------||------------------|
 ............|

 us (2)
E|-----------------------------------------------------------------------------------|
B|-----------------------------------------------------------|-----------------------|
G|-----------------7--------------------------2--------------|---2-------/-6------/-2|
D|---2------5------7----------2-----3-----4---4----2~~-------|---2-----7-/-6----2-/-2|
A|---2------4------5----0-----2-----3-----3---3----2~~-------|---0-----7-/-4----2-/-0|
E|---0------3-------------3p1-0-----1-----2--------0~~--x-------------5--------0----|

E|-------------------------------------------------------------------------------||
B|-------------------------------------------------------------------------------||
G|-----/-9------------/-2--------/-6-------/-2------/-9--------------------------|| end
D|---7-/-9---8~-----2-/-2------7-/-6-----2-/-2----7-/-9----8~~----7-------7----||
A|---7-/-7---8~-----2-/-0------7-/-4-----2-/-0----7-/-7----8~~----7-------7----||
E|---5-------6~-----0----------5---------0--------5--------6~~----5-------5----||

----------------------------------------------------------------------------------

  Rhythm Guitar during Keyboard Solo
E|-----------------------------------------------------------------------------------|
B|-----------------------------------------------------------------------------------|
G|-----------------------------------------------------------------------------------|
D|-----------------------------------------------------------------------------------|
A|----------------------------------------------------------------------/-5--5--5--5-|
E|--5-5-5--5--5--5-5--4-4-4--4--4--4-4--3-3-3--3-3-3--3-3-3-3-3-3-3-3--------------|
  pm................................................................................

E|-----------------------------------------------------------------------------------|
B|-----------------------------------------------------------------------------------|
G|-----------------------------------------------------------------------------------|
D|-----------------------------------------------------------------------------------|
A|-5--5--5--5------------------------------------------------------------------------|
E|--------------5-5-5--5--5--5-5-/-6-6-6--6--6--6-6--6-6-6--6-6-6--6-6-6-6-6-6-6-6-/|
 ...................................................................................

E|--------------------------||
B|--------------------------||
G|--------------------------|| end
D|--------------------------||
A|--------------------------||
E|-7--7--7--7--7--7--7--7---||
 .......................|

  Rhythm Guitar during Guitar Solo
E|--------------------------------------||
B|--------------------------------------||
G|------------4-----------------4-------|| end
D|---7---2----4---4----7---2----4---4---||
A|---7---2----2---4----7---2----2---4---||
E|---5---0--------2----5---0--------2---||

----------------------------------------------------------------------------------


=======================
=TABLATURE EXPLANATION=
=======================

A.H. = Artificial Harmonic

pm..| = Palm mute

h = hammer on

p = pull off

/ = slide up

 = slide down

~ = Vibrato

b() = Bend

x = Pick Slide

--------
--------
---12--- = Tremolo pick
----/---
----/---
----/---

---.---
--12--- = Staccato
-------
-------
-------

|     |
|     |
|*   *| = repeat from * to *
|*   *| 
|     |
00:00 / 00:00
Outros vídeos desta música
Repetir
Outros vídeos desta música
Compositor não encontrado.
Colaboração e revisão:
  • Taino Vieira
673 exibições
    • ½ Tom
    • A
    • Bb
    • B
    • C
    • Db
    • D
    • Eb
    • E
    • F
    • F#
    • G
    • Ab
  • Adicionar à lista

    0 comentários

    Ver todos os comentários

    Conseguiu tocar?

    0 Tocaram 0 Ainda não

    Grave um vídeo tocando When Demons Awake e nos envie!

    Entre para oCifra Club PRO

    Tenha acesso a benefícios exclusivos no App e no Site

    • Chega de anúncios

    • Prioridade de compra em lançamentos

    • Mais recursos no app do Afinador

    • Atendimento Prioritário

    • Descontos nos produtos Cifra Club

    • Ajude a produzir mais conteúdo

    00:00 / 00:00

    Cifra Club Pro

    Aproveite o Cifra Club com benefícios exclusivos e sem anúncios
    Cifra Club Pro
    Aproveite o Cifra Club com benefícios exclusivos e sem anúncios
    OK