Cifra Club

Aprenda

Rust

Richie Kotzen

Cifra: Principal (violão e guitarra)
Tom: A
Intro.:

e|---------------------------------0--0-------------------------------------|
B|------------------------12--12---0--------2-------------------------------|
G|------------------------9---11---8----8---2-------------------------------|
D|--9-9---9-9----9-11-9---9---9----9--------2-------2-----------------------|
A|--9-11--9-11---9-9--9------------9--------0-------------------------------|
E|--0-0---0-0----0-0--0------------7------------2/4---4b-2-0----------------|

Verso:

         E                   C#m7      B        A
e|-------------------------------------0-------------------------------|2
B|---------------------------9---------0--------2----------------------|v
G|-------9-------------------9---------8--------2----------------------|e
D|-------9-------------------9---------9--------2---------2------------|z
A|-------11----------------------------9--------0----------------------|e
E|-------0-------------------9---------7--------------2/4----4b--2-0---|s

     G#m7         A          G#m7         B
e|--------------------------------------------------------------------------|
B|----4-----------2--2--2-----4-----------4---------------------------------|
G|----4--4-4-4----2--2--2-----4--4-4-4----4---------------------------------|
D|----4--4-6-4----2--2--2-----4--4-6-4----4---------------------------------|
A|----------------0--0--0---------------------------------------------------|
E|----4-----------------------4-----------7---------------------------------|

Refrão:

E : Asus2 : Asus2 : E Asus2 : x2 

E : Asus2 : D Asus2 : E Asus2 

E : Asus2 : Asus2 : E 

Toca o verso e depois o refrão.

  2:36

e|---------------------|
B|---------------------|
G|--9-9--9--9--9--9-9--|
D|--9-11-11-11-11-9-9--|
A|---------------------|
E|---------------------|


D    : Asus2    : E    : E    : D    : Asus2    : D    : Asus2    :


Esse lick é tocado nos primeiros acordes do refrão:

e|------------|
B|------------|
G|------------|
D|------------|
A|------7--9--|
E|--7/9-------|

Refrão:
                                            E
e|--------------------------------0---------0--|
B|--------------------------------0---------0--|
G|--9-9---9-9---9-----------------9---------1--|
D|--9-11--9-11--9--9--9-----x3----11--------2--|
A|-----------------9--11--------------------2--|
E|-----------------0--0---------------------0--|
5.375 exibições
    • ½ Tom
    • A
    • Bb
    • B
    • C
    • Db
    • D
    • Eb
    • E
    • F
    • F#
    • G
    • Ab
  • Adicionar à lista

    0 comentários

    Mostrar mais comentários

    Conseguiu tocar?

    0 Tocaram 0 Ainda não

    Grave um vídeo tocando Rust e mande pra gente!

    00:00 / 00:00
    outros vídeos desta música
    repetir qualidade Automático
    Outros vídeos desta música
    00:00 / 00:00
    Automático

    Cifra Club Pro

    Aproveite o Cifra Club com benefícios exclusivos e sem anúncios
    7 dias grátis
    Cifra Club Pro
    Aproveite o Cifra Club com benefícios exclusivos e sem anúncios
    7 dias grátis
    OK