Cifra Club

Ela é Demais

Rick e Renner

Cifra: Principal
exibições 425.037
Tom: F
1º Solo da introdução:

                  F           Dm         Bb      C
E|---------------------------------------6-6--6-5---------------------|
B|---------------------3-5-5h6-6-5-----------------8-6----------------|
G|-------------2/3-5-5-------------5-5h7---------------7-5------------|
D|------2-3-5-----------------------------------------------8-7-5-----|
A|-3-5----------------------------------------------------------------|
E|--------------------------------------------------------------------|

       F                         Dm       Bb              C
E|---------------------8-10---8--13p12-12\10--10-10-10\8--8-8-8\6-----|
B|-------------6-8/10------10-----------------------------------------|
G|--------5-7---------------------------------------------------------|
D|-3-5/7--------------------------------------------------------------|
A|--------------------------------------------------------------------|
E|--------------------------------------------------------------------|
                 
E|-6-6-6-5h6p5--------------------------------------------------------|
B|-------------8------------------------------------------------------|
G|--------------------------------------------------------------------|
D|--------------------------------------------------------------------|
A|--------------------------------------------------------------------|
E|--------------------------------------------------------------------|

F                                        Dm
 Ela tem um jeito lindo de me olhar nos olhos
                 Bb
 Me despertando sonhos
               C  Bb C
 Loucuras de amor
F                                    Dm
 Ela tem um jeito doce de tocar meu corpo
               Bb
 Que me deixa louco
                C Bb C
 Um louco sonhador
F                Dm            Bb
 Ela sabe me prender como ninguém
 C              F
 Tem seus mistérios
           Dm            Bb
 Sabe se fazer como ninguém
           C    Bb C
 Meu caso sério

 2 :F                Dm              Bb
   : Uma Deusa, uma louca, uma feiticeira
 v : C         F
 e : Ela é demais
 z :F                     Dm                   Bb
 e : Quando beija a minha boca e se entrega inteira
 s :      C             F
   : Meu Deus ela é demais

2º Solo:

      F           Dm         Bb      C
E|----------------------------6-6--6-5-------------------------------|
B|-----------3-5-5h6-6-5----------------8-6--------------------------|
G|--2/3-5-5-------------5-5h7---------------7-5----------------------|
D|----------------------------------------------8-7-5----------------|
A|-------------------------------------------------------------------|
E|
       F                         Dm       Bb              C
E|---------------------8-10---8--13p12-12\10--10-10-10\8--8-8-8\6----|
B|-------------6-8/10------10----------------------------------------|
G|--------5-7--------------------------------------------------------|
D|-3-5/7-------------------------------------------------------------|
A|-------------------------------------------------------------------|
E|-------------------------------------------------------------------|
                 
E|-6-6-6-5h6p5-------------------------------------------------------|
B|-------------8-----------------------------------------------------|
G|-------------------------------------------------------------------|
D|-------------------------------------------------------------------|
A|-------------------------------------------------------------------|
E|-------------------------------------------------------------------|
          
F                                       Dm
 Ela tem o brilho forte brilha feito estrela
             Bb                   C  Bb C
 Ah eu adoro vê-la fazendo aquele amor
F                                           Dm
 Que me enlouquece me embriaga me envolve inteiro
                   Bb
 Que me faz prisioneiro
                C  Bb C
 Um louco sonhador
F                Dm            Bb
 Ela sabe me prender como ninguém
 C            F
 Tem seus mistérios
            Dm           Bb
 Sabe se fazer como ninguém
            C   Bb C
 Meu caso sério

 4 :F                Dm              Bb
   : Uma Deusa, uma louca, uma feiticeira
 v : C         F
 e : Ela é demais
 z :F                     Dm                  Bb
 e : Quando beija a minha boca e se entrega inteira
 s :      C             F
   : Meu Deus ela é demais

3º Solo:
                         F
E|-----------------|-1-------------|
B|----------3-5-5h6|--1----1----1--|
G|--2/3-5-5--------|---3---0h2--0h2|
D|-----------------|----3--3-------|
A|-----------------|---------------|
E|-----------------|---------------|
Acordes para:

    0 comentários

      mostrar mais comentários

      Conseguiu tocar?

      22tocaram0ainda não

      Grave um vídeo tocando Ela é Demais e mande pra gente!

      00:00 / 00:00
      outros vídeos desta música
      repetirqualidadeautomática
      Outro vídeos desta música
        00:00 / 00:00
        automática
        OK