Cifra Club

Super Freak

Rick James

Tab de baixo: Principal
Intro - Play the main riff 2x then slide up and down to the 7th fret on the A string (A---/7\---) and begin the main riff

main riff - play along...
G------------------------------|-----------------------------|
D------------------------------|-----------------------------|
A--5--3--2--0---------2--0-----|--5--3--2--0--2-----2--0-----|
E---------------0--3-----------|-----------------3-----------|


chorus 2x
G------------------------------|-----------------------------|
D------------------------------|-------------------------5-7-|
A--5--3--2--0---2-----2--0-----|--5--3--2--0--2-----2--0-----|
E------------------1-----------|-----------------1-----------|


Interlude
   She's alright             She's alright           
G-------------------12-14-|-------------------12-14-|
D-----3-----5-------------|-----3-----5-------------|
A--------------0----------|--------------0----------|
E--1-----3----------------|--1-----3----------------|

   She's alright            That girls alright with me        
G-------------------------|----------4--------------|
D------3----5-------------|----------2--3-----2-----|
A--------------0----------|--0----------------------|
E--1-----3----------------|-------------1-----0-----|

Then slide up and down to the 7th fret on the A string and begin the main riff till the end of the song

The main riff is really just repeated over and over....

exibições 5.799
Composição: Alonzo Miller / Rick James Colaboração e revisão:
  • Rodrigo Fasioli

0 comentários

mostrar mais comentários

Conseguiu tocar?

4 tocaram 0 ainda não

Grave um vídeo tocando Super Freak e mande pra gente!

00:00 / 00:00
outros vídeos desta música
repetir qualidade Automático
Outros vídeos desta música
00:00 / 00:00
Automático
OK