Cifra Club

Wild Thoughts

Rihanna

Cifra: Principal (violão e guitarra)
Tom: D#
Cm
Another one
Cm
We The Best music
DJ Khaled

Fm
I don't know if you could take it
Know you wanna see me nakey, nakey, naked
Cm
I wanna be your baby, baby, baby
Spinning and it's wet just like it came from Maytag
Gm
White girl wasted on that brown liquor
When I get like this I can't be around you
Cm
I'm too lit to dim down a notch
                                      Fm
'Cause I could name some thangs that I'm gon' do

Fm
Wild, wild, wild
                      Cm
Wild, wild, wild thoughts
Wild, wild, wild
                                        Gm
When I'm with you, all I get is wild thoughts
Wild, wild, wild
                                       Cm
When I'm with you, all I get is wild thoughts

Let's go!

Cm
I hope you know I'm for the takin'
You know this cookie is for the baking (ugh)
Kitty, kitty, baby give that thing some rest
'Cause you done beat it like the '68 Jets
Fm
Diamonds ain't nothing when I'm rockin' with ya
Diamonds ain't nothing when I'm shinin' with ya
Cm
Just keep it white and black as if I'm ya sista
I'm too hip to hop around town out here with ya

Fm
Wild, wild, wild
                      Cm
Wild, wild, wild thoughts
Wild, wild, wild
                                        Gm
When I'm with you, all I get is wild thoughts
Wild, wild, wild
                                       Cm
When I'm with you, all I get is wild thoughts

Cm
Ayy, I heard that pussy for the taking
I heard it got these other niggas goin' crazy
                              Gm
Yeah I treat you like a lady, lady
Cm
Fuck you 'til you're burned out, cremation
Fm
Make it cream, yeah, Wu-Tang
Throw that ass back, bouquet
Cm
Call me and I can get it juicy
I can tell you're gone off the D'usse
Gm
Careful mama watch what you say
G
You talking to me like ya new bae
Cm
Girl, talking to me like you tryna do things
Now that pipe got her running like she Usain, baby
Gm
You made me drown in it, touche, baby
Cm
I'm carrying that water, Bobby Boucher, baby
You know I'ma slaughter like I'm Jason
Bust it, why you got it on safety?
Fm
White girl wasted on brown liquor
   Eb                          Cm
I probably shouldn't be around you
'Cause you get wild, wild, wild
                                                Gm
You looking like there's nothing that you won't do
Ayy, girl that's when I told you

Fm
Wild, wild, wild
                      Cm
Wild, wild, wild thoughts
Wild, wild, wild
                                        Gm
When I'm with you, all I get is wild thoughts
Wild, wild, wild
                                       Cm
When I'm with you, all I get is wild thoughts

DJ Khaled!
Wild, wild, wild
Wild, wild, wild
                                       Cm
When I'm with you, all I get is wild thoughts

[Solo]

Parte 1 de 3

E|-------15-15-16-15----------------15--------------------------------------|
B|---------------------16-------16------------------------------------------|
G|-------------------------17-----------------------------------------------|
D|--------------------------------------------------------------------------|
A|--------------------------------------------------------------------------|
E|--------------------------------------------------------------------------|

Parte 2 de 3

E|-------15-20-15---------------15-------15---------------------------------|
B|----------------16-------16--------18-------------------------------------|
G|--------------------17----------------------------------------------------|
D|--------------------------------------------------------------------------|
A|--------------------------------------------------------------------------|
E|---------------------------------------------------------------------------|

Parte 3 de 3

E|--15-16-15-----------------------------------------------------------------|
B|------------18-16------16-20-16-16-16-18-18-18-20-18-16----------------------|
G|--------------------17----------------------------------17-------------------|
D|-----------------------------------------------------------------------------|
A|-----------------------------------------------------------------------------|
E|------------------------------------------------------------------------------|
exibições 6.472
Acordes para:

    0 comentários

    mostrar mais comentários

    Conseguiu tocar?

    2 tocaram 1 ainda não

    Grave um vídeo tocando Wild Thoughts e mande pra gente!

    00:00 / 00:00
    outros vídeos desta música
    repetir qualidade Automático
    Outros vídeos desta música
    00:00 / 00:00
    Automático
    OK