Cifra Club

Honey Don't

Ringo Starr

Cifra: Principal (violão e guitarra)
tom: E
Intro:
                                        E
E|----0---0------0---0------0---0--------------------------
B|----0---0------0---0------0---0--------------------------
G|--4---4---4--3---3---3--2---2---0------------------------
D|---------------------------------------------------------
A|-------------------------------------------4-7-4---------
E|-------------------------------------0-4-7-------7-4-0---

      E
Well, how come you say you will when you won't?
C
  Say you do, baby when you don't
E
  Let me know, honey, how you fell
C
  Tell the truth now, is love real?
      B7
  so, aw, aw
            E
Well, honey don't
Well, honey don't
Honey don't
      A7
Honey don't
      E7
Honey don't
          B7
I say you will when you won't
A7            E
aw, aw, honey don't

        E
Well, I love you, baby, and you ought to know
C
 I like the way that you wear your clothes
    E
Everything about you is so doggone sweet
    C
You got that sand all over your feet
    B7
so, aw, aw
            E
Well, honey don't
Honey don't
Honey don't
      A7
Honey don't
      E7
Honey don't
          B7
I say you will when you won't
A7             E
aw,  aw, honey don't

Oh, rock on George, one time for me

(Solo)

E C E C B7 E
I feel fine
E A7 E7 B7 A7 E
Ooo, oo, I say

     E
Well Sometimes I love you on a Saturday night
C
  Sunday morning you don't look right
E
 You been out painting the town
C
 Uh huh, baby you been slipping around
    B7
so, aw, aw
            E
Well, honey don't
I say, honey don't
Honey don't
      A7
Honey don't
      E7
Honey don't
          B7
I say you will when you won't
A7             E
aw,  aw, honey don't

(solo 2)

E C E C B7 E

E
      Well, honey don't
            A7
Well, honey don't
                        E7
a little, little, honey don't
           B7
I say, you will when you won't
A7            E
Aw, as, honey don't


esses riffs são tocados com uma guitarra durante a música, são facilmente identificados:

Riff 1:
      E                   E
E|----------------------------------------
B|----------------------------------------
G|----------------------------------------
D|----------------------------------------
A|---------4-7-4---------------4-5-4------
E|---0-4-7-------7-4-----0-4-7-------7-4--

Riff 2:
      A
E|------------------------
B|------------------------
G|------------------------
D|---------4-5-4----------
A|---0-4-7-------7-4------
E|------------------------

Riff 3:
      B
E|----------------------
B|----------------------
G|----------------------
D|---------6-7-6--------
A|-----6-9-------9-6----
E|---7------------------
00:00 / 00:00
Outros vídeos desta música
Repetir
Outros vídeos desta música
Composição de Carl Perkins
Colaboração e revisão:
  • Mariana Oliveira
490 exibições
    • ½ Tom
    • A
    • Bb
    • B
    • C
    • Db
    • D
    • Eb
    • E
    • F
    • F#
    • G
    • Ab
  • Adicionar à lista

    0 comentários

    Ver todos os comentários

    Conseguiu tocar?

    0 Tocaram 0 Ainda não

    Grave um vídeo tocando Honey Don't e nos envie!

    00:00 / 00:00

    Cifra Club Pro

    Aproveite o Cifra Club com benefícios exclusivos e sem anúncios
    Cifra Club Pro
    Aproveite o Cifra Club com benefícios exclusivos e sem anúncios
    OK