Cifra Club

Aprenda

Drones

Rise Against

Cifra: Principal (violão e guitarra)
tom: D
Written By Francis Bourassa

Intro

D#|-----------------|
A#|-15*-----14*-13--|
F#|-----------------|
C#|-----------------|
G#|-----------------|
D#|-----------------|

|-----------------|
|-----------------|
|---79------79--7-|
|-227922552279227- x3
|-225722552257225-
|-00--003300--00--

Verse
                                                          Scratch
|---------------------------------0-------------------------------|
|---------------------------------0-------------------------------|
|---------------------------------0-------------------------------|
|-2-------------------------------2-------------------------------|
|-2-------------------------------2-------------------------------|
|-0-------------------------------0-------------------------------|

Pre-Chorus

Gtr. 1

|---------------------------------|
|---------------------------------|
|---------------------------------|
|-2---------------5-------7-----7-|
|-2-222222222222225-5555557-77777-|
|-0-000000000000003-3333335-55555-|
    ..............  ......  ....

|---------------------------------|
|---------------------------------|
|---------------------------------|
|-2---------------5-------7777779-|
|-2-222222222222225-5555557777779-|
|-0-000000000000003-3333335555557-|
    ..............  ......

Gtr.2

|-------------------------------------|
|-------------------------------------|
|-9--79--79-1211----9--79--79-12-11---|
|-------------------------------------| x2
|-------------------------------------|
|-------------------------------------|

Chorus

|-------------------------------------------------|
|-------------------------------------------------|
|-55555555555555557777777777777777--4---4---4---4-|
|-55555555555555557777777777777777445-444-445-444-|
|-33333333333333335555555555555555222-222-222-222-|
|-------------------------------------------------|
                                  ..  ..  ..  ..

Gtr.1

|-----------------|
|-----------------|
|-----------------|
|-2222444455559999
|-2222555555559999
|-0000222233337777

Gtr.2

|-----------------|
|-----------------|
|-9999777755554444
|-xxxxxxxxxxxxxxxx
|-7777555533332222
|-----------------

|-------------------------------------------------|
|-------------------------------------------------|
|-55555555555555557777777777777777--4---4---4---4-|
|-55555555555555557777777777777777445-444-445-444-|
|-33333333333333335555555555555555222-222-222-222-|
|-------------------------------------------------|
                                  ..  ..  ..  ..

|-----------------|
|--------10-------|
|---------9-------|
|22222222---------|
|22222222---------|
|00000000---------|

Intro

Verse
                                           Scratch
|--------------------------------------------------|
|-7*----------------------------------7*-----------|
|------7*--------7*--------------------------------|
|-----------7*-------------------------------------|
|--------------------------------------------------|
|--------------------------------------------------|

Pre-Chorus with

|---------------------|
|-7*------------------|
|------7*--------7*---|
|-----------7*--------| x2
|---------------------|
|---------------------|

Chorus

Bridge

Gtr.1

|---------------------------------------------------|
|---------------------------------------------------|
|---------------------------------------------------|
|-2-2-2-2-2-2-2-2-7-5-5-5-5-5-5-5-9-7-7-7-7-7-7-7-5-| x2
|-2-2-2-2-2-2-2-2-7-5-5-5-5-5-5-5-9-7-7-7-7-7-7-7-5-|
|-0-0-0-0-0-0-0-0-5-3-3-3-3-3-3-3-7-5-5-5-5-5-5-5-3-|

Gtr.2

|---------------------------------------|
|---------------------------------------|
|-7-9-9-7-12-9-14-9-7-9-16-9-12-9-14-12-|
|---------------------------------------| x2
|---------------------------------------|
|---------------------------------------|

|------------------------------------------------------------------|
|------------------------------------------------------------------|
|------------------------------------------------------------------|
|------------------------------------------------------------------|
|-22-222-222-2227755-555-555-5559977-777-777-7775522-222-222-22255-|
|-00-000-000-0005533-333-333-3337755-555-555-5553300-000-000-00033-|
  .. ... ... ....... ... ... ....... ... ... ....... ... ... .....

Gtr.1

|-----------------0---------------0---------------0----------------|
|-----------------0---------------0---------------0----------------|
|-----------------0---------------0---------------0----------------|
|-2---------------5---------------7---------------9---------9109-5-| x2
|-2---------------5---------------7---------------9----------------|
|-0---------------3---------------5---------------7----------------|

Gtr.2

|-----------------------------------------------------|
|-----------------------------------------------------|
|-9-----------7-9-11-----------9-11-12-------11-------|
|-x-----------x-x--x-----------x--x--x--------x-------| At the second time
|-7-----------5-7--9-----------7--9-10--------9-------|
|-----------------------------------------------------|

|---------------------------------|
|-----------------^^^^^^^^^^^^^^--|
|-1919191919191919191919191919194-
|--x-x-x-x-x-x-x-x-x-x-x-x-x-x-x4-|
|-17-17-17-17-17-17-17-17-17-17-2-|
|---------------------------------|

Chorus

Intro

Sure at 99%
Composição de Brandon Barnes / Chris Chasse / Joe Principe / Rise Against / Tim McIlrath
3.023 exibições
    • ½ Tom
    • A
    • Bb
    • B
    • C
    • Db
    • D
    • Eb
    • E
    • F
    • F#
    • G
    • Ab
  • Adicionar à lista

    0 comentários

    Ver todos os comentários

    Conseguiu tocar?

    0 Tocaram 1 Ainda não

    Grave um vídeo tocando Drones e nos envie!

    00:00 / 00:00
    Outros vídeos desta música
    Repetir Qualidade Automático
    Outros vídeos desta música
    00:00 / 00:00
    Automático

    Cifra Club Pro

    Aproveite o Cifra Club com benefícios exclusivos e sem anúncios
    Cifra Club Pro
    Aproveite o Cifra Club com benefícios exclusivos e sem anúncios
    OK