Cifra Club

Aprenda

Everchanging Acoustic

Rise Against

Cifra: Principal (violão e guitarra)
tom: C
Tabbed by: Michael Bocephus
Email: *

Tuning: Eb 


Intro/verse

e|---------------------------------------------|
B|---------------------------------------------|
G|---------------------------------------------|
D|-----5---------3---------2-------------------|
A|---3---3-----3---3-----3---3----5-3-2-3------|
E|-5-------5-1-------1-3-------3----------3----|
                                                   x4
Verse

e|-------------------------------------------------------------------------|
B|-------------------------------------------------------------------------|
G|-------------------------------------------------------------------------|
D|-55555555-33333333-22222222-00000000--55555555-33333333-22222222-00000000|
A|-33333333-33333333-33333333-53322222--33333333-33333333-33333333-53322223|
E|-55555555-11111111-33333333-33333333--55555555-11111111-33333333-33333333|
Pm ........ ........ ........ ........  ........ ........ ........ ......


e|-------------------------------------------------------------------------|
B|-------------------------------------------------------------------------|
G|-------------------------------------------------------------------------|
D|-55555555-33333333-22222222-00000000--55555555-33333333-22222222-00000000|
A|-33333333-33333333-33333333-22222222--33333333-33333333-33333333-22222222|
E|-55555555-11111111-33333333-33333333--55555555-11111111-33333333-33333333|
Pm .. .. .  .. .. .  .. .. .  .. .. .   .. .. .  .. .. .  .. .. .  .. .. . 

 
Pre-chorus/Chorus

    G  G7 G6add11          C  G  C  F  C  G  F
e|--3---1--0---|   |-------0--3--0--1--0--3--1------|
B|--3---0--1---|   |-------1--3--1--1--1--3--1------|
G|--0---0--0---|   |-------0--0--0--2--0--0--2------| Rhythem and Strumming
D|--0---0--0---|   |-------2--0--2--3--2--0--3------|   not represented.
A|--2---2--2---|   |-------3--2--3-----3--2---------|
E|--3---3--3---|   |----------3-----------3---------|
                                              x2

Verse

e|-------------------------------------------------------------------------|
B|-------------------------------------------------------------------------|
G|-------------------------------------------------------------------------|
D|-55555555-33333333-22222222-00000000--55555555-33333333-22222222-00000000|
A|-33333333-33333333-33333333-53322222--33333333-33333333-33333333-53322223|
E|-55555555-11111111-33333333-33333333--55555555-11111111-33333333-33333333|
Pm ........ ........ ........ ........  ........ ........ ........ .....


e|-------------------------------------------------------------------------|
B|-------------------------------------------------------------------------|
G|-------------------------------------------------------------------------|
D|-55555555-33333333-22222222-00000000--55555555-33333333-22222222-00000000|
A|-33333333-33333333-33333333-22222222--33333333-33333333-33333333-22222222|
E|-55555555-11111111-33333333-33333333--55555555-11111111-33333333-33333333|
Pm .. .. .  .. .. .  .. .. .  .. .. .   .. .. .  .. .. .  .. .. .  .. .. . 




Pre-chorus/Chorus

    G  G7 G6add11          C  G  C  F  C  G  F
e|--3---1--0---|   |-------0--3--0--1--0--3--1------|
B|--3---0--1---|   |-------1--3--1--1--1--3--1------|
G|--0---0--0---|   |-------0--0--0--2--0--0--2------| Rhythem and Strumming
D|--0---0--0---|   |-------2--0--2--3--2--0--3------|   not represented.
A|--2---2--2---|   |-------3--2--3-----3--2---------|
E|--3---3--3---|   |----------3-----------3---------|
                                              x2


Outro

    C          C  F  Am G  C  F  G           C
e|--0---|  |---0--1--0--3--0--1--3---|  |----0----|
B|--1---|  |---1--1--1--3--1--1--3---|  |----1----|
G|--0---|  |---0--2--2--0--0--2--0---|  |----0----|   Rhythem and Strumming
D|--2---|  |---2--3--2--0--2--3--0---|  |----2----|     not represented.
A|--3---|  |---3-----0--2--3-----2---|  |----3----|
E|------|  |------------3--------3---|  |---------|
                                x4



============================================================================
Compositor não encontrado.
5.992 exibições
    • ½ Tom
    • A
    • Bb
    • B
    • C
    • Db
    • D
    • Eb
    • E
    • F
    • F#
    • G
    • Ab
  • Adicionar à lista

    0 comentários

    Ver todos os comentários

    Conseguiu tocar?

    2 Tocaram 0 Ainda não

    Grave um vídeo tocando Everchanging Acoustic e nos envie!

    00:00 / 00:00
    Outros vídeos desta música
    Repetir Qualidade Automático
    Outros vídeos desta música
    00:00 / 00:00
    Automático

    Cifra Club Pro

    Aproveite o Cifra Club com benefícios exclusivos e sem anúncios
    Cifra Club Pro
    Aproveite o Cifra Club com benefícios exclusivos e sem anúncios
    OK