Cifra Club

Aprenda

Paper Wings

Rise Against

Cifra: Principal (violão e guitarra)
tom: Bb (forma dos acordes no tom de B) Afinação: Eb Ab Db Gb Bb Eb
Intro:
(Guitarra 1)
E|-----------------------------------------------------------------------|
B|-----------------------------------------------------------------------|
G|-----------------------------------------------------------------------|
D|-999-999999-999999-888-13-13-13-13-13-13-333-666666-666----------------|   (2x)
A|-777-777777-777666-666-11-11-11-10-10-10-444-444444-444-777-777777-777-|
E|--------------------------------------------------------555-555555-555-|
(Guitarra 2)
E|-7-5-4-5-4---7-5-9-9-9---5-4-2-4-2---2---4-2---|
B|---------------------------------------5-----5-|
G|-----------------------------------------------|
D|-----------------------------------------------|   (2x)
A|-----------------------------------------------|
E|-----------------------------------------------|

Verso:
E|-----------------------------------|----------------------------------|---------------------|
B|-----------------------------------|----------------------------------|---------------------|
G|-----------------------------------|-6-6------------------------------|---------------------|
D|-11-11--2-2-2-2-9-9-9/11-7-7-7-7-x2|-6-6--2-2-2-2-9-9-9/11-7-7-7-7--2x|-9--7---9----7--9999-|
A|-11-11--2-2-2-2-9-9-9/11-7-7-7-7---|-4-4--2-2-2-2-9-9-9/11-7-7-7-7----|-9--7---9----7--9999-|
E|--9--9--0-0-0-0-7-7-7/-9-5-5-5-5---|------0-0-0-0-7-7-7/-9-5-5-5-7----|-7--5---7----5--7777-|

Refrão = Intro

(Verso / Refrão)

Solo:

(Guitarra 1)
E|-----------------------------------------------|
B|------------5-5-5-5-5-5-3-3-3-3-3-5-5-5-5-5----|
G|2-2-2-2-2-2-4-4-4-4-4-4-2-2-2-2-2-4-4-4-4-4----|
D|2-2-2-2-2-2-2-2-2-2-2-2-0-0-0-0-0-2-2-2-2-2----|   (2x)
A|0-0-0-0-0-0------------------------------------|
E|-----------------------------------------------|
(Guitarra 2)
E|-----------------------------------------------------------------------4--4-4-4-4-4-4-4-|
B|-6-666p4-3h4-444-6p4-3h4-444-6p4-3h4-44-3-33-----4h6-4h6-4h6-4h6-4h6---4--4-4-4-4-4-4-4-|
G|-----------------------------------------------3----------------------------------------|
D|----------------------------------------------------------------------------------------|
A|----------------------------------------------------------------------------------------|
E|----------------------------------------------------------------------------------------|

E|-6--6-6-6-6-6-6-------------------------------------------------------------------------|
B|-6--6-6-6-6-6-6---4-444-7bp4-3h4---4h7bp4-3h4-444444------------------11-----8----------|
G|--------------------------------------------------------3-333-3h5-3------8-8---8-8-10-8-|
D|----------------------------------------------------------------------------------------|
A|----------------------------------------------------------------------------------------|
E|----------------------------------------------------------------------------------------|

E|-------------------------------------------------------|
B|-11-----8----------11-----8----------8h9p8-------8h9p8-|
G|----8-8---8-8-10-8----8-8---8-8-10-8---------8-------8-|
D|-------------------------------------------------------|
A|-------------------------------------------------------|
E|-------------------------------------------------------|

(Parte Acústica)

(Refrão 2x)

Intro/Refrão
Composição de Brandon Barnes / Chris Chasse / Joe Principe / Rise Against / Tim McIlrath
Colaboração e revisão:
  • Rafael Uliana
  • Jean Rengel
13.273 exibições
    • ½ Tom
    • A
    • Bb
    • B
    • C
    • Db
    • D
    • Eb
    • E
    • F
    • F#
    • G
    • Ab
  • Adicionar à lista

    0 comentários

    Ver todos os comentários

    Conseguiu tocar?

    2 Tocaram 0 Ainda não

    Grave um vídeo tocando Paper Wings e nos envie!

    00:00 / 00:00
    Outros vídeos desta música
    Repetir Qualidade Automático
    Outros vídeos desta música
    00:00 / 00:00
    Automático

    Cifra Club Pro

    Aproveite o Cifra Club com benefícios exclusivos e sem anúncios
    Cifra Club Pro
    Aproveite o Cifra Club com benefícios exclusivos e sem anúncios
    OK