Cifra Club

Aprenda

Savior

Rise Against

Cifra: Principal (violão e guitarra)
tom: G
(tuning - drop d)

(guitar 2)
(0:00-0:23)
E |---------------------------------------------------------------------|(2x)
B |---------------------------------------------------------------------|
G |--17-13-15-17-15-13-17---17-13-15-17-15-13-12-10---------------------|
D |---x--x--x--x--x--x--x----x--x--x--x--x--x--x--x---------------------|
A |--15-11-13-15-13-11-15---15-11-13-15-13-11-10--8---------------------|
D |---------------------------------------------------------------------|
Pm   .  .  .  .  .  .  .    .  .  .  .  .  .  .  .

or

(guitar 2)
(0:00-0:23)
E |---------------------------------------------------------------------|(2x)
B |---------------------------------------------------------------------|
G |--17-13-15-17-15-13-17---17-13-15-17-15-13-12-10---------------------|
D |--17-13-15-17-15-13-17---17-13-15-17-15-13-12-10---------------------|
A |--15-11-13-15-13-11-15---15-11-13-15-13-11-10--8---------------------|
D |---------------------------------------------------------------------|
Pm   .  .  .  .  .  .  .    .  .  .  .  .  .  .  .

(guitar 1)
(0:23-0:40)
E |---------------------------------------------------------------------|(2x)
B |---------------------------------------------------------------------|
G |--17-13-15-17-15-13-17---17-13-15-17-15-13-12-10---------------------|
D |---x--x--x--x--x--x--x----x--x--x--x--x--x--x--x---------------------|
A |--15-11-13-15-13-11-15---15-11-13-15-13-11-10--8---------------------|
D |---------------------------------------------------------------------|

(guitar 2)
(0:23-0:40)
E |---------------------------------------------------------------------|(2x)
B |---------------------------------------------------------------------|
G |---------------------------------------------------------------------|
D |--3-3-3-3-6-6-6-6-11-11-11-11-6-6-5-5--------------------------------|
A |--3-3-3-3-6-6-6-6-11-11-11-11-6-6-5-5--------------------------------|
D |--3-3-3-3-6-6-6-6-11-11-11-11-6-6-5-5--------------------------------|

(guitar 1)
(0:47-0:48)
E |------------|
B |------------|
G |------------|
D |--1h3-------|
A |------------|
D |------------|

(guitar 2)
(0:47-0:57)
E |-------------------------------------------------------------------------|
B |-------------------------------------------------------------------------|
G |-------------------------------------------------------------------------|
D |--3-3-3-3-6-6-6-6-11-11-11-11-6-6-5-5------------------------------------|
A |--3-3-3-3-6-6-6-6-11-11-11-11-6-6-5-5------------------------------------|
D |--3-3-3-3-6-6-6-6-11-11-11-11-6-6-5-5------------------------------------|
Pm    . . .   . . .     .  .  .   .   .

(guitar 2)
(0:58-1:04)
E |-------------------------------------------------------------------------|
B |-------------------------------------------------------------------------|
G |-------------------------------------------------------------------------|
D |--6-6-6-8-8-8-6-6-6-8-8-8~--x--------------------------------------------|
A |--6-6-6-8-8-8-6-6-6-8-8-8~--x--------------------------------------------|
D |--6-6-6-8-8-8-6-6-6-8-8-8~--x--------------------------------------------|

(guitar 2)
(1:06-1:31) (on the second time just hit the 6 and the 5 once at the end)
E |---------------------------------------------------------------------|(3x)
B |---------------------------------------------------------------------|
G |---------------------------------------------------------------------|
D |--3-3-3-3-6-6-6-6-11-11-11-11-6-6-5-5--------------------------------|
A |--3-3-3-3-6-6-6-6-11-11-11-11-6-6-5-5--------------------------------|
D |--3-3-3-3-6-6-6-6-11-11-11-11-6-6-5-5--------------------------------|

(guitar 1)
(1:24-1:31)
E |---------------------------------------------------------------------|
B |---------------------------------------------------------------------|
G |--17-13-15-17-15-13-17---17-13-15-17-15-13-12-10~--------------------|
D |---x--x--x--x--x--x--x----x--x--x--x--x--x--x--x---------------------|
A |--15-11-13-15-13-11-15---15-11-13-15-13-11-10--8~--------------------|
D |---------------------------------------------------------------------|

(guitar 1)
(1:41-1:42)
E |------------|
B |------------|
G |------------|
D |--1h3-------|
A |------------|
D |------------|

(guitar 2)
(1:41-1:48)
E |-------------------------------------------------------------------------|
B |-------------------------------------------------------------------------|
G |-------------------------------------------------------------------------|
D |--3-3-3-3-6-6-6-6-11-11-11-11-6-6-5-5------------------------------------|
A |--3-3-3-3-6-6-6-6-11-11-11-11-6-6-5-5------------------------------------|
D |--3-3-3-3-6-6-6-6-11-11-11-11-6-6-5-5------------------------------------|
Pm    . . .   . . .     .  .  .   .   .

(guitar 2)
(1:49-1:56)
E |-------------------------------------------------------------------------|
B |-------------------------------------------------------------------------|
G |-------------------------------------------------------------------------|
D |--6-6-6-8-8-8-6-6-6-8-8-8~--x--------------------------------------------|
A |--6-6-6-8-8-8-6-6-6-8-8-8~--x--------------------------------------------|
D |--6-6-6-8-8-8-6-6-6-8-8-8~--x--------------------------------------------|

(guitar 2)
(1:58-2:14) (on the last time just hit the 6 and the 5 once at the end)
E |---------------------------------------------------------------------|(2x)
B |---------------------------------------------------------------------|
G |---------------------------------------------------------------------|
D |--3-3-3-3-6-6-6-6-11-11-11-11-6-6-5-5--------------------------------|
A |--3-3-3-3-6-6-6-6-11-11-11-11-6-6-5-5--------------------------------|
D |--3-3-3-3-6-6-6-6-11-11-11-11-6-6-5-5--------------------------------|

(guitar 1)
(2:15-2:44)
E |--------------------------|
B |--------------------------|
G |-10-10-10-13-13-8-8-------|
D |--x--x--x--x--x-x-x-------|
A |--8--8--8-11-11-6-6-------|
D |--------------------------|

(guitar 2)
(2:15-2:44) (figure out the strumming patter by ear)
E |---------------------|
B |---------------------|
G |---------------------|
D |--3-3-3-3------------|
A |--3-3-3-3------------|
D |--3-3-3-3------------|

(guitar 1)
(2:45-2:48)(it goes something like that but if someone figures it out tell me)
E |-------------------------------------------------------------------------|
B |-------------------------------------------------------------------------|
G |--10-13-15-13-12-8-10~---------------------------------------------------|
D |---x--x--x--x--x-x--x~---------------------------------------------------|
A |---8-11-13-11-10-6--8~---------------------------------------------------|
D |-------------------------------------------------------------------------|

(guitar 2)
(2:49-3:23)
E |-------------------------------------------------------------------------|
B |-------------------------------------------------------------------------|
G |-----10-----10-----10-----10-----10--------------------------------------|
D |---10--10-10--10-10--10-10--10-10----------------------------------------|
A |--8------8------8------8------8------------------------------------------|
D |-------------------------------------------------------------------------|

(guitar 1)
(3:12-3:22) (ends on 8)
E |----8---8---8---8--------------------------------------------------------|
B |---6-6-6-6-6-6-6---------------------------------------------------------|
G |--5---5---5---5----------------------------------------------------------|
D |-------------------------------------------------------------------------|
A |-------------------------------------------------------------------------|
D |-------------------------------------------------------------------------|

(guitar 2)
(3:25-4:00)
E |---------------------------------------------------------------------|(4x)
B |---------------------------------------------------------------------|
G |---------------------------------------------------------------------|
D |--3-3-3-3-6-6-6-6-11-11-11-11-6-6-5-5--------------------------------|
A |--3-3-3-3-6-6-6-6-11-11-11-11-6-6-5-5--------------------------------|
D |--3-3-3-3-6-6-6-6-11-11-11-11-6-6-5-5--------------------------------|

(guitar 1)
(3:40-4:00)
E |---------------------------------------------------------------------|(2x)
B |---------------------------------------------------------------------|
G |--17-13-15-17-15-13-17---17-13-15-17-15-13-12-10~--------------------|
D |---x--x--x--x--x--x--x----x--x--x--x--x--x--x--x---------------------|
A |--15-11-13-15-13-11-15---15-11-13-15-13-11-10--8~--------------------|
D |---------------------------------------------------------------------|

(both guitars)
(4:00-4:02)
E |-------------------------------------------------------------------------|
B |-------------------------------------------------------------------------|
G |-------------------------------------------------------------------------|
D |--6--5--3~---------------------------------------------------------------|
A |--6--5--3~---------------------------------------------------------------|
D |--6--5--3~---------------------------------------------------------------|

| /  slide up
| \  slide down
| h  hammer-on
| p  pull-off
| ~  let ring
| +  harmonic
| x  mute note
Composição de Brandon Barnes / Joe Principe / Rise Against / Tim McIlrath / Zach Blair
Colaboração e revisão:
  • Eric Lazzaretti
41.623 exibições
    • ½ Tom
    • A
    • Bb
    • B
    • C
    • Db
    • D
    • Eb
    • E
    • F
    • F#
    • G
    • Ab
  • Adicionar à lista

    0 comentários

    Ver todos os comentários

    Conseguiu tocar?

    2 Tocaram 1 Ainda não

    Grave um vídeo tocando Savior e nos envie!

    00:00 / 00:00
    Outros vídeos desta música
    Repetir Qualidade Automático
    Outros vídeos desta música
    00:00 / 00:00
    Automático

    Cifra Club Pro

    Aproveite o Cifra Club com benefícios exclusivos e sem anúncios
    Cifra Club Pro
    Aproveite o Cifra Club com benefícios exclusivos e sem anúncios
    OK