Cifra Club

Aprenda

Survive

Rise Against

Cifra: Principal (violão e guitarra)
tom: A
-intro #1
e-----------------------|
b-----------------------|
g-----------------------|
d--6---------(quietly)--|
a--4-4-4-4---4-0-676-4--|
e----5-7-2--------------|

-intro #1
e----2---4-----2---4-0--|
b--2---2-----2---2------|
g-----------------------|
d-----------------------|
a-----------------------|
e-----------------------|

-intro #2
e----------------------|
b----------------------|
g--6-9-4-99---4---4-4--|
d--6-6-4-99---4-4-2-4--|
a--4-7-2-76---2-4-0-2--|
e---------------2---2--|

-verse
e------------------|---------|
b------------------|---------|
g--6-------4---4-4-|---------|
d--6---7---4-4-2-4-|---------|
a--4---4---2-4-0-2-|---------|
e------5-----2---2-|--4-2-0--|

-chorus
e-----------|
b-----------|
g--6--------|
d--6-9-7-9--|
a--4-9-7-9--|
e----7-5-7--|

-pre chorus
e-------------------------------|
b-------------------------------|
g-------------------------------|
d--4--(second time into chorus--|
a--4----------------------------|
e--2----------------------------|

-interlude part 1
e------|-----------------------|
b------|------5-0-4-0-5-0-4-0--|
g------|--4--------------------|
d--6-7-|--4--------------------|
a--6-7-|--2--------------------|
e--4-5-|-----------------------|

-interlude part 2
e---------2---4-2---0------|-----------------|
b-------2---2-----2--------|-----------------|
g--4-6---------------------|--4-4-2---2-4-4--|
d--4-6---------------------|--4-2-2---2-4-4--|
a--2-4---------------------|--2-0-0---0-2-0--|
e--------------------------|-----------------|

interlude part 2
e--------------------------|
b--------------------------|
g--6------------4----------|
d--6-7-9-4------4----------|
a--4-7-9-4------2----------|
e----5-7-2------2-4-2-0----|

ESSA É A TRADICIONAL
ESPERO Q GOSTEM
VLW GALERA
Composição de Brandon Barnes / Chris Chasse / Joe Principe / Rise Against / Tim McIlrath
Colaboração e revisão:
  • lucas silva
6.897 exibições
    • ½ Tom
    • A
    • Bb
    • B
    • C
    • Db
    • D
    • Eb
    • E
    • F
    • F#
    • G
    • Ab
  • Adicionar à lista

    0 comentários

    Ver todos os comentários

    Conseguiu tocar?

    0 Tocaram 0 Ainda não

    Grave um vídeo tocando Survive e nos envie!

    00:00 / 00:00
    Outros vídeos desta música
    Repetir Qualidade Automático
    Outros vídeos desta música
    00:00 / 00:00
    Automático

    Cifra Club Pro

    Aproveite o Cifra Club com benefícios exclusivos e sem anúncios
    Cifra Club Pro
    Aproveite o Cifra Club com benefícios exclusivos e sem anúncios
    OK