Cifra Club

Aprenda

Whereabouts Unknown

Rise Against

Cifra: Principal (violão e guitarra)
tom: C
|----x-------------------------x---------------------x---x-x----x-----|
|----x-------------------------x---------7-----------x---x-x----x-----|
|----x----------11------9-7-9--x ----7-----7--9-7----x---x-x----x-----|
|----x---9-12-9----12-9--------7~--7---7-----7----7--5~--7-5----9-----|
|----7~------------------------5~--------------------3~--5-3----7~----|
|----0~------------------------0~--------------------0~--0-0----0-----|

|-------------------------------------------------x---------x---------|
|-------------------------------------------------x---------x---------|
|---------11------9-7/12-11--11-11-9-9/11-9-7-----x---------x---------|
|--9-12-9----12-9-----------------------------7--10-9-7-5---9-7-5-4---|
|-------------------------------------------------8---------7---------|
|-------------------------------------------------0---------0---------|

|--x-x-x-x---|              |--x-x-x-x---------x-x-x-x---------x-x-x-x--|
|--x-x-x-x---|              |--x-x-x-x---------x-x-x-x---------x-x-x-x--|
|--x-x-x-x---|(intro)       |--x-x-x-x---------x-x-x-x---------x-x-x-x--|
|--x-x-x-x---| (1x)  (verse)|--5-5-4-5---------5-5-4-5---------5-5-5-7--|
|--7-7-5-7---|       (2x)   |--7-7-5-7---------7-7-5-7---------7-7-7-5--|
|--0-0-0-0---|              |--0-0-0-0-0000000-0-0-0-0-0000000-0-0-0-0--|

|---------x-x-x-x-----------|               |----------------------------|
|---------x-x-x-x-----------|   (pre-chorus)|----------------------------|
|---------x-x-x-x-----------|       (1x)    |----------------------------|
|---------5-5-4-5-----------|(verse)        |--5-------4-------5---------|
|---------7-7-5-7-----------| (2x)          |--7-(3x)--5-(5x)--7-(3x)----|
|-0000000-0-0-0-0-0000000---|               |--0-------0-------0---------|

|-------------------------|
|-------------------------|(prechorus)         x= silent string
|-------------------------|  (1x)           /\= slide up down
|---9\7--5-------7--------|                  ~= let note ring
|--------7-(8x)--5-(8x)---|               (#x)= play last note # times

Composição de Brandon Barnes / Joe Principe / Rise Against / Tim McIlrath / Zach Blair
Colaboração e revisão:
  • Eric Lazzaretti
887 exibições
    • ½ Tom
    • A
    • Bb
    • B
    • C
    • Db
    • D
    • Eb
    • E
    • F
    • F#
    • G
    • Ab
  • Adicionar à lista

    0 comentários

    Ver todos os comentários

    Conseguiu tocar?

    0 Tocaram 0 Ainda não

    Grave um vídeo tocando Whereabouts Unknown e nos envie!

    00:00 / 00:00
    Outros vídeos desta música
    Repetir Qualidade Automático
    Outros vídeos desta música
    00:00 / 00:00
    Automático

    Cifra Club Pro

    Aproveite o Cifra Club com benefícios exclusivos e sem anúncios
    Cifra Club Pro
    Aproveite o Cifra Club com benefícios exclusivos e sem anúncios
    OK