Cifra Club

Aprenda

Wolves

Rise Against

Cifra: Principal (violão e guitarra)
tom: A
D
Light up the torches and wake up the King
F#  E
The smoke you've ignored is a flame you can't contain
D
We circle the walls and claw at the dirt
F#  E
We growl from our guts and howl until it hurts

D
I told her come with me
   E
And I can take you from this place now
  F#
Somewhere these roads all go
   A
Someplace so we can start again
  D                     E
I grabbed her hand and pulled her close
   F#
She looked at me and said
    A
"Hey I don't even know Your name"

E|----------------------------------------------------------------|
B|----------------------------------------------------------------|
G|-13-11-11-11-11-13-14-11-11-11-11-13-11-11-11-11-13-14-14-14-14-|
D|-x--x--x--x--x--x--x--x--x--x--x--x--x--x--x--x--x--x--x--x--x--|
A|-11-9--9--9--9--11-12-9--9--9--9--11-9--9--9--9--11-12-12-12-12-|
E|----------------------------------------------------------------|

E|-------------------------------------------------------------|
B|-------------------------------------------------------------|
G|-13-11-11-11-11-13-14-11-11-11-11-16-16-16-16-14-14-14-14-13-|
D|-x--x--x--x--x--x--x--x--x--x--x--x--x--x--x--x--x--x--x--x--|
A|-11-9--9--9--9--11-12-9--9--9--9--14-14-14-14-12-12-12-12-11-|
E|-------------------------------------------------------------|

                          F#   E  F#  E
"But are you ready to explode?
                   F#  E  F#  E
Like a tiger in a circus?
                   F#    E    F#  E
Cracking whips are all I know
                                B
And searching for a sense of purpose"

           F#
We are the wolves at the gates
    A
Our numbers growing every day, now
D
But you can't fight us alone no
E
No, you can't fight 
           F#
We are the wolves at the wall
   A
We break in like a waterfall, yeah
D
But you can't fight us alone no
E
No you can't fight

( D  E  F#  A )
( F#  E )

E|---------------------------|
B|-6-4-2-4-6--7--6--2--9--11-|
G|---------------------------|
D|---------------------------|
A|---------------------------|
E|---------------------------|

D
The water is breaching the walls of the dam
F#  E
Trampling dreams in a rush to higher land

E|----------------------------------------------------------------|
B|----------------------------------------------------------------|
G|-13-11-11-11-11-13-14-11-11-11-11-13-11-11-11-11-13-14-14-14-14-|
D|-x--x--x--x--x--x--x--x--x--x--x--x--x--x--x--x--x--x--x--x--x--|
A|-11-9--9--9--9--11-12-9--9--9--9--11-9--9--9--9--11-12-12-12-12-|
E|----------------------------------------------------------------|

E|-------------------------------------------------------------|
B|-------------------------------------------------------------|
G|-13-11-11-11-11-13-14-11-11-11-11-16-16-16-16-14-14-14-14-13-|
D|-x--x--x--x--x--x--x--x--x--x--x--x--x--x--x--x--x--x--x--x--|
A|-11-9--9--9--9--11-12-9--9--9--9--14-14-14-14-12-12-12-12-11-|
E|-------------------------------------------------------------|

                          F#   E  F#  E
"But are you ready to explode?
                   F#  E  F#  E
Like a tiger in a circus?
                   F#    E    F#  E
Cracking whips are all I know
                                B
And searching for a sense of purpose"

           F#
We are the wolves at the gates
    A
Our numbers growing every day, now
D
But you can't fight us alone no
E
No, you can't fight 
           F#
We are the wolves at the wall
   A
We break in like a waterfall, yeah
D
But you can't fight us alone no
E
No you can't fight

( D  F#  D  F#  D  F#  E )
( D  F#  D  F#  D  F#  E )

E|----------------------------------|
B|----------------------------------|
G|-11-11-11-6-6-6-------6-6---------|
D|----------------9-9-9-----7-7-4-4-|
A|----------------------------------|
E|----------------------------------|

Roaming in numbers
And chasing the scent
Circling in for the kill
And you are the winter
The long discontent
We won't stop till we've had our fill

We are the wolves
F#                     A
Roaming in numbers and chasing the scent
D                E
Circling in for the kill
F#                          A
And you are the winter, the long discontent
D                            E
We won't stop till we've had our fill

F#  A  D  E
We are the wolves 
F#  A  D  E
We are the wolves 
F#  A  D  E
We are the wolves 
F#
We are the wolves
Compositor não encontrado.
Colaboração e revisão:
  • Victor Gabriel
48 exibições
    • ½ Tom
    • A
    • Bb
    • B
    • C
    • Db
    • D
    • Eb
    • E
    • F
    • F#
    • G
    • Ab
  • Adicionar à lista

    0 comentários

    Ver todos os comentários

    Conseguiu tocar?

    0 Tocaram 0 Ainda não

    Grave um vídeo tocando Wolves e nos envie!

    00:00 / 00:00
    Outros vídeos desta música
    Repetir Qualidade Automático
    Outros vídeos desta música
    00:00 / 00:00
    Automático

    Cifra Club Pro

    Aproveite o Cifra Club com benefícios exclusivos e sem anúncios
    Cifra Club Pro
    Aproveite o Cifra Club com benefícios exclusivos e sem anúncios
    OK