Cifra Club

Aprenda

Reza

Rita Lee

Cifra: Principal (violão e guitarra)
Tom: D
Intro: C  Cm  G  E7  A7  D  D5+

            G             B7
Deus me proteja da sua inveja
           Em             G7
Deus me defenda da sua macumba
         C            E7
Deus me salve da sua praga
          Am           C7
Deus me ajude da sua raiva
            F   Fm       C      A7
Deus me imunize do seu veneno...uhu
D7      G             C D5+
Deus me poupe do seu fim
           G              B7
Deus me proteja da sua inveja
           Em             G7
Deus me defenda da sua macumba
         C            E7
Deus me salve da sua praga
          Am          C7
Deus me ajude da sua raiva
            F   Fm         C     A7
Deus me imunize do seu veneno...uhu
D7       G           C  G5+
Deus me poupe do seu fim
             C
Deus me acompanhe
          C5+
Deus me ampare
           C6+
Deus me levante
            C7
Deus me dê força
F          Fm         C  A7
Deus me perdoe por querer
     D7               G         C
Que deus me livre e guarde de você
             C
Deus me acompanhe
          C5+
Deus me ampare
          C6+
Deus me levante
            C7
Deus me dê força
F          Fm          C A7
Deus me perdoe por querer
     D7               G         C  D5+
Que deus me livre e guarde de você

Solo: G  B7  Em  G7  C  E7  Am  C7

E|-------------------------------------------------|
B|-------------------------------------------------|
G|----------------------------------9--------------|
D|------------5h7-9~---9p7-5-7h9-9----9p7-5h7p5----|
A|-/5~----5h7-----------------------------------7~-|
E|-------------------------------------------------|

E|---------------7~-------------------------------------------|
B|----5-4-3~---5----------------------------------------------|
G|--------------------7b9r7-5-7-7b9-7b9~--7b9r7-5-7-7b9-7b9~--|
D|-/5---------------------------------------------------------|
A|------------------------------------------------------------|
E|------------------------------------------------------------|

E|---------------------------5-4-3-----8----|
B|-10------------------------5-4-3-----8----|
G|----9p7-5h7p5-2h4p2-2~-----6-5-4-----9----|
D|---------------------------7-6-5-----10---|
A|------------------------------------------|
E|------------------------------------------|

F          Fm         C A7
Deus me perdoe por querer
     D7                G        C  A7
Que Deus me livre e guarde de você
     D7                G        C  A7
Que Deus me livre e guarde de você
     D7               G         C
Que Deus me livre e guarde de você
Fm     C Fm      C
Uhuuuuuu Uhuuuuuuu
Composição de Rita Lee
Colaboração e revisão:
93.496 exibições
    • ½ Tom
    • A
    • Bb
    • B
    • C
    • Db
    • D
    • Eb
    • E
    • F
    • F#
    • G
    • Ab
  • Adicionar à lista

    0 comentários

    Mostrar mais comentários

    Conseguiu tocar?

    26 Tocaram 0 Ainda não

    Grave um vídeo tocando Reza e mande pra gente!

    00:00 / 00:00
    outros vídeos desta música
    repetir qualidade Automático
    Outros vídeos desta música
    00:00 / 00:00
    Automático
    OK