Cifra Club

Aprenda

Ingrata Solidão

Ritmo Quente

Cifra: Principal (violão e guitarra)
Quer fazer aulas de música com a gente? Responda essas perguntas
e nos ajude nesse projeto! →
tom: E
[Intro]

E|-12-11-9---------------------------------|
B|---------12-11-9-------------------------|
G|-----------------11-9-8~-----------------|
D|-----------------------------------------|
A|-----------------------------------------|
E|-----------------------------------------|

E7M                  D#m7
    Que ingrata solidão porque
                     C#m7
Me faz lembrar de você
E7M                   D#m7
    O meu peito arde de paixão
            C#m7
Quero esquecer
E7M                      D#m7
    Momentos que passei junto a ti
               C#m7
É difícil pra mim
E7M                     D#m7
    O amor que tu não quer sentir
                    C#m7
Juro que vou conseguir

         G#m               F#                B
Sei que tudo não é como a gente quer, mas estou 
      F#/A#  G#m  F#
Falando de amor
         G
Dá uma chance para mim
                          F#
Tirar do peito a dor tão ruim , amor

        Em                   Bm
Mas, você não viu que eu chorei demais
           Em                     Bm
Quero que tire do meu peito essa dor
      Em                     Bm
Só você Neném tem o que ninguém mais tem
      G      F#
É só tu meu bem
                   
[Refrão]

 Em   Bm   Em   Bm
Não, não, não, não
 Em   Bm
Não, não
           
E|--------------------------------------------|
B|--------------------------------------------|
G|-9------------------------------------------|
D|-9-9-5--7-8-9-------------------------------|
A|-7-9-5--7-8-9-------------------------------|
E|---7-3--5-6-7-------------------------------|
Compositor não encontrado.
Colaboração e revisão:
15.621 exibições
    • ½ Tom
    • A
    • Bb
    • B
    • C
    • Db
    • D
    • Eb
    • E
    • F
    • F#
    • G
    • Ab
  • Adicionar à lista

    0 comentários

    Ver todos os comentários

    Conseguiu tocar?

    1 Tocaram 0 Ainda não

    Grave um vídeo tocando Ingrata Solidão e nos envie!

    00:00 / 00:00
    Outros vídeos desta música
    Repetir Qualidade Automático
    Outros vídeos desta música
    00:00 / 00:00
    Automático

    Cifra Club Pro

    Aproveite o Cifra Club com benefícios exclusivos e sem anúncios
    Cifra Club Pro
    Aproveite o Cifra Club com benefícios exclusivos e sem anúncios
    OK