Cifra Club

Dayman

Rmb

Cifra: Principal (violão e guitarra)
Selo Cifra Club: esta cifra foi revisada para atender aos critérios oficiais da nossa Equipe de Qualidade.
tom: A
  PM----------------------------------         PM----------------------------
E|------------------------------------------------------------------------------------|
B|------------------------------------------------------------------------------------|
G|------------------------------------------------------------------------------------|
D|-------------------------------------7-7-7-5--------------------------------5-5-5-4-|
A|-5-5-5-5-5-5-5-5-5-5-5-5-5-5-5-5-5-5-5-5-5-3--3-3-3-3-3-3-3-3-3-3-3-3-3-3-3-3-3-3-2-|
E|------------------------------------------------------------------------------------|

  PM-----------------------------        PM----------------
E|--------------------------------------------------------------------------|
B|--------------------------------------------------------------------------|
G|----------------------------------------------------------------5-------6-|
D|-------------------------------4-4-4-3------------------------5-------6---|
A|-2-2-2-2-2-2-2-2-2-2-2-2-2-2-2-2-2-2-1--1-1-1-1-1-1-1-1-1-1/3-----3/4-----|
E|--------------------------------------------------------------------------|

  PM----------------------------------    PM----------------------------
E|-------------------------------------------------------------------------------|
B|-------------------------------------------------------------------------------|
G|-------------------------------------------------------------------------------|
D|-7------------------------------7-7-7-5--------------------------------5-5-5-4-|
A|-5--5-5-5-5-5-5-5-5-5-5-5-5-5-5-5-5-5-3--3-3-3-3-3-3-3-3-3-3-3-3-3-3-3-3-3-3-2-|
E|-------------------------------------------------------------------------------|

  PM-----------------------------        PM----------------
E|----------------------------------------------------------------------|
B|----------------------------------------------------------------------|
G|----------------------------------------------------------------------|
D|-------------------------------4-4-4-3--------------------5-5-5-6-6-6-|
A|-2-2-2-2-2-2-2-2-2-2-2-2-2-2-2-2-2-2-1--1-1-1-1-1-1-1-1-1-3-3-3-4-4-4-|
E|----------------------------------------------------------------------|

 [Verse]

  PM----------------------------------------------------------------------------------------------
E|-------------------------------------------------------------------------------------------------|
B|-------------------------------------------------------------------------------------------------|
G|-------------------------------------------------------------------------------------------------|
D|-------------------------------------------------------------------------------------------------|
A|-5-5-5-5-5-5-5-5-5-5-5-5-5-5-5-5-3-3-3-3-3-3-3-3-3-3-3-3-3-3-3-3-2-2-2-2-2-2-2-2-2-2-2-2-2-2-2-2-|
E|-------------------------------------------------------------------------------------------------|

  PM------------------
E|---------------------------------|
B|---------------------------------|
G|---------------------------------|
D|---------------------5-5-5-6-6-6-|
A|-1-1-1-1-1-1-1-1-1-1-3-3-3-4-4-4-|
E|---------------------------------|

 [Chorus 1]

E|---------------------------------------------------------------------|
B|---------------------------------------------------------------------|
G|---------------------------------------------------------------------|
D|-7-7-7-7-7-7-7-7-5-5-5-5-5-5-5-5-4-4-4-4-4-4-4-4-3-3-3-3-5-5-5-6-6-6-|
A|-5-5-5-5-5-5-5-5-3-3-3-3-3-3-3-3-2-2-2-2-2-2-2-2-1-1-1-1-3-3-3-4-4-4-|
E|---------------------------------------------------------------------|

 [Guitar Solo]

  Wah on
E|-----------------------------------------------------------------------------------------------|
B|-10-------------------------------------------------------------------10-13-13-10-10-10--13p10-|
G|-12b14-12pb14r12-10h12p10--------10-12b14-10h12p10-----------10-12b14--------------------------|
D|---------------------------10h12-------------------12--10h12-----------------------------------|
A|-----------------------------------------------------------------------------------------------|
E|-----------------------------------------------------------------------------------------------|

E|-------13-15b17-15-15-15b16p13----15p13----15p13----15p13----15b17-13-----------------13-18-18-18-18-|
B|-13/15-------------------------15-------15-------15-------15----------15-13-15--13h15----------------|
G|-----------------------------------------------------------------------------------------------------|
D|-----------------------------------------------------------------------------------------------------|
A|-----------------------------------------------------------------------------------------------------|
E|-----------------------------------------------------------------------------------------------------|

E|-20-20-20-20-21-21--|
B|--------------------|
G|--------------------|
D|--------------------|
A|--------------------|
E|--------------------|

 [Bridge]

  Wah off
E|-----------------------------------------------------------------------------------------------------------|
B|-----------------------------------------------------------------------------------------------------------|
G|-------------------------------x-x-x-x--x-x-x-x------------------------------------------------------------|
D|-7-7-7-5----5-5-5-4----4-4-4-3-x-x-x-x--x-x-x-x-5-5-5-6-6-6------------------------------------5-5-5-6-6-6-|
A|-5-5-5-3----3-3-3-2----2-2-2-1-x-x-x-x--x-x-x-x-3-3-3-4-4-4------------------------------------3-3-3-4-4-4-|
E|-----------------------------------------------------------------------------------------------------------|

 [Chorus 2]

E|---------------------------------------------------------------------------------------------------------|
B|-----12b13r12-10-12-10----------12b13r12-10-12-10----------12b13r12-10-12-10-----------------------------|
G|-----12b13r12-10-12-10----------12b13r12-10-12-10----------12b13r12-10-12-10-----------------------------|
D|-7-7--------------------7-7-7-5--------------------5-5-5-4-------------------4-4-4-3-3-3-3-5-5-5-6-6-6-7-|
A|-5-5--------------------5-5-5-3--------------------3-3-3-2-------------------2-2-2-1-1-1-1-3-3-3-4-4-4-5-|
E|---------------------------------------------------------------------------------------------------------|

************************************

| x   Dead note
| h   Hammer-on
| p   Pull-off
| r   Release
| b   Bend
| /   Slide up
| PM  Palm mute
Outros vídeos desta música
    15 exibições
      • ½ Tom
      • A
      • Bb
      • B
      • C
      • Db
      • D
      • Eb
      • E
      • F
      • F#
      • G
      • Ab
    • Adicionar à lista

    Afinação da cifra

    Afinador online

      0 comentários

      Ver todos os comentários

      Entre para o Cifra Club PRO

      Tenha acesso a benefícios exclusivos no App e no Site

      • Chega de anúncios

      • Badges exclusivas

      • Mais recursos no app do Afinador

      • Atendimento Prioritário

      • Aumente seu limite de lista

      • Ajude a produzir mais conteúdo

      Cifra Club Pro

      Aproveite o Cifra Club com benefícios exclusivos e sem anúncios
      Cifra Club Pro
      Aproveite o Cifra Club com benefícios exclusivos e sem anúncios
      OK