Cifra Club

American With

Rob Zombie

Cifra: Principal (violão e guitarra)
Selo Cifra Club: esta cifra foi revisada para atender aos critérios oficiais da nossa Equipe de Qualidade.
tom: D
Intro
Guitar 2 

E|--------------------------------------------------------------------------|
B|--------------------------------------------------------------------------|
G|--------------------------------------------------------------------------|
D|--99-99-999--------99-99--------------99-99-999--------99-99--------------|
A|--99-99-999--10-9--99-99--10-9--14----99-99-999--10-9--99-99--10-9--5-----|
E|--77-77-777---8-7--77-77--8--7--12----77-77-777---8-7--77-77---8-7--7-----|
        
Guitar 1 
E|--7-7-7-7-7-7-7-7-7-7-7-7-b10----7-7-7-7-7-7-7-7-7-7-7-7-b5---------------|
B|--------------------------------------------------------------------------|
G|--------------------------------------------------------------------------|
D|--------------------------------------------------------------------------|
A|--------------------------------------------------------------------------|
E|--------------------------------------------------------------------------|

Both Guitars X 2
E|--------------------------------------------------------------------------|
B|--------------------------------------------------------------------------|
G|--------------------------------------------------------------------------|
D|--99-99-999--------99-99--------------99-99-999--------99-99--------------|
A|--99-99-999--10-9--99-99--10-9--14----99-99-999--10-9--99-99--10-9--5-----|
E|--77-77-777---8-7--77-77--8--7--12----77-77-777---8-7--77-77---8-7--7-----|
   PM-------        PM---              PM-------        PM--
Both Guitars X 2
E|--------------------------------------------------------------------------|
B|--------------------------------------------------------------------------|
G|--------------------------------------------------------------------------|
D|--99-99-999--------99-99--------------99-99-999--------99-99--------------|
A|--99-99-999--10-9--99-99--10-9--14----99-99-999--10-9--99-99--10-9--5-----|
E|--77-77-777---8-7--77-77--8--7--12----77-77-777---8-7--77-77---8-7--7-----|

Guitar 1 
E|------------------------------------------------------------------|
B|------------------------------------------------------------------|
G|------------------------------------------------------------------|
D|------------------------------------------------------------------|
A|------------------------------------------------------------------|
E|---0-2-3--0-3-5--0-5-7--0-7-9--0-7-10-----------------------------|

Guitar 2 
E|--------------------------------------------------------------------------|
B|-12-12-11-11-12-12-11-11-12-12-14-14-12-12-11-11-12-12-11-11-12-12-14-14--|
G|--------------------------------------------------------------------------|
D|--------------------------------------------------------------------------|
A|--------------------------------------------------------------------------|
E|--------------------------------------------------------------------------|

Both Guitars X 2
E|--------------------------------------------------------------------------|
B|--------------------------------------------------------------------------|
G|--------------------------------------------------------------------------|
D|--99-99-999--------99-99--------------99-99-999--------99-99--------------|
A|--99-99-999--10-9--99-99--10-9--14----99-99-999--10-9--99-99--10-9--5-----|
E|--77-77-777---8-7--77-77--8--7--12----77-77-777---8-7--77-77---8-7--7-----|
Outros vídeos desta música
    885 exibições
      • ½ Tom
      • A
      • Bb
      • B
      • C
      • Db
      • D
      • Eb
      • E
      • F
      • F#
      • G
      • Ab
    • Adicionar à lista

    Afinação da cifra

    Afinador online

      0 comentários

      Ver todos os comentários

      Entre para o Cifra Club PRO

      Tenha acesso a benefícios exclusivos no App e no Site

      • Chega de anúncios

      • Badges exclusivas

      • Mais recursos no app do Afinador

      • Atendimento Prioritário

      • Aumente seu limite de lista

      • Ajude a produzir mais conteúdo

      Cifra Club Pro

      Aproveite o Cifra Club com benefícios exclusivos e sem anúncios
      Cifra Club Pro
      Aproveite o Cifra Club com benefícios exclusivos e sem anúncios
      OK