Cifra Club

Aprenda

Angels

Robbie Williams

Cifra: Principal (violão e guitarra)
tom: E
[Intro] E

E|--0--0--0--0--------------------------------|
B|--0--0--0--0--------------------------------|
G|--1--1--1--1--------------------------------| (2x)
D|--2--2--2--2----3-2-------------------------|
A|--2--2--2--2--2-----------------------------|
E|--0--0--0--0--------------------------------|

               E
I sit and wait
E                       A        C#m  B 
Does an angel contemplate my fate
                E
And do they know
                       E
The places where we go
                        A  C#m  B
When we're grey and old

                   F#m7
'Cause I have been told
          A               C#m           A
That salvation lets their wings unfold

            D
So when I'm lying in my bed
        A
Thoughts running through my head
    E
And I feel the love is dead

D          A/C#          E    
I'm loving angels instead

                  B                         C#m
And through it all she offers me protection
                            A
A lot of love and affection
                           E   
Whether I'm right or wrong

                          B
And down the waterfall
                 C#m
Wherever it may take me
                        A
I know that life won't break me
                    E               F#m
When I come to call, she won't forsake me
           A/C#      E
I'm loving angels instead

                     E
When I'm feeling weak
                        A               C#m  B 
And my pain walks down a one way street
             E
I look above
                          A             C#m  B
And I know I'll always be blessed with love

    F#m7 
And as the feeling grows
             A
She breathes flesh to my bones
         E              D
And when love is dead
           E/C#       E
I'm loving angels instead

                  B                 C#m
And through it all she offers me protection
                            A
A lot of love and affection
                           E    
Whether I'm right or wrong

                        B
And down the waterfall
                C#m
Wherever it may take me
                        A
I know that life won't break me
                   E             F#m7
When I come to call, she won't forsake me
           A/C#      E
I'm loving angels instead

[Solo] B  A  E B  A  E 

                  B                 C#m
And through it all she offers me protection
                            A
A lot of love and affection
                           E    
Whether I'm right or wrong

                        B
And down the waterfall
                C#m
Wherever it may take me
                        A
I know that life won't break me
                   E             F#m7
When I come to call, she won't forsake me
           A/C#      E
I'm loving angels instead

Riff 1

E|--------------------------------------------|
B|--------------------------------------------|
G|--------------------------------------------|
D|----4-5-7-----------------------------------|
A|--------------------------------------------|
E|--------------------------------------------|

Riff 2

   B  C#m  E  A
E|-----------2---------------------------------|
B|--5-4-2-0--3---------------------------------|
G|-----------2---------------------------------|
D|-----------0---------------------------------|
A|---------------------------------------------|
E|---------------------------------------------|
Composição de Guy Chambers / Robbie Williams
392.708 exibições
    • ½ Tom
    • A
    • Bb
    • B
    • C
    • Db
    • D
    • Eb
    • E
    • F
    • F#
    • G
    • Ab
  • Adicionar à lista

    0 comentários

    Ver todos os comentários

    Conseguiu tocar?

    30 Tocaram 6 Ainda não

    Grave um vídeo tocando Angels e nos envie!

    00:00 / 00:00
    Outros vídeos desta música
    Repetir Qualidade Automático
    Outros vídeos desta música
    00:00 / 00:00
    Automático

    Cifra Club Pro

    Aproveite o Cifra Club com benefícios exclusivos e sem anúncios
    Cifra Club Pro
    Aproveite o Cifra Club com benefícios exclusivos e sem anúncios
    OK