Cifra Club

Its Only Us

Robbie Williams

Cifra: Principal (violão e guitarra)
exibições 1.541
Tom: G
Tabbed By:       Jose Jankunas
e-mail:         *

. means: do the chord for a bunch of times (listen to the song for details)
$ means: let ring


Intro:
e/---------------------------------/
B/------------------------------x--/
G/------------------------------4--/
D/*
A/*
E/------4---2---5-----------2---x--/

Chorus:
e/--------------------------------------/
B/--------------------------------------/
G/*
D/*$--/
A/--7---3---2---2---2---0---3---2---2---/
E/--5-----------0---0---------------0---/

Verse:
e/---------------------------------/
B/---------------------------------/
G/*
D/*
A/--7---6---4---7---7---2---4---2--/
E/------4---2---5-----------2------/

Chorus:
e/--------------------------------------/
B/--------------------------------------/
G/*
D/*$--/
A/--7---3---2---2---2---0---3---2---2---/
E/--5-----------0---0---------------0---/


Solo (Chords)

E B A C
E B A C
E B A C B

E B

Chorus---

ENJOY
Acordes para:

    0 comentários

    mostrar mais comentários

    Conseguiu tocar?

    0 tocaram 0 ainda não

    Grave um vídeo tocando Its Only Us e mande pra gente!

    00:00 / 00:00
    outros vídeos desta música
    repetir qualidade Automático
    Outros vídeos desta música
    00:00 / 00:00
    Automático
    OK