Cifra Club

29 Palms

Robert Plant

Cifra: Principal (violão e guitarra)
Tom: G
(intro 4x) Em

(riff 1)
E|----------------|
B|----------------|
G|----------------|
D|-----2---0h2----|
A|-0h2---2--------|
E|----------------|

(riff 1 - no final de cada frase)

          Em
A Fool in Love
          Em
A Crazy Situation
          A
Her velvet glove
                      Em
Knocks me down and down and down and down

(3 quick da bateria)

          Em
A kiss of fire
            Em
A loaded invitation
           A
Inside her smile
                      Em
She takes me down and down and down and down

(sem riff 1)

C
Ahhh ahh ahh
C
Ahhh ahh ahh
C
Ahhh ahh ahh

C                 Em
Her moves looked good
               Em
A touch of desperation
             D
From where I stood
                 Em
She turned my head around and round and round

C
Ahhh ahh ahh
C
Ahhh ahh ahh
C                            G
Ahhh ahh ahh ahh ahh ahh ahh ahh

(chorus)
G          D
Comes down hard
       G                      C
When I hear your voice on the radio
G                        D
Taking me back down that road
              Em          C
Leads back to you        ohhh

G    D
  29 Palms
  G                     C
I feel the heat of your desert heart
G                        D
Taking me back down that road
                  Em       C
Leads back to you         ohhh

(riff 1 - no final de cada frase)

          Em
A burnin' love
              Em
Strange infatuation
                A
White cold cold touch
                   Em
What must I do and do and do and do

(3 quick da bateria)

                 Em
The heat and the dust
                 Em
Increased my desolation
            A
In God we trust
                   Em
Always for you and you and you and you

(sem riff 1)

C
Ahhh ahh ahh
C
Ahhh ahh ahh
C                            G
Ahhh ahh ahh ahh ahh ahh ahh ahh

(chorus)
G          D
Comes down hard
       G                      C
When I hear your voice on the radio
G                         D
Leading me back down that road
              Em          C
Leads back to you        ohhhhh

G    D
  29 Palms
  G                     C
I feel the heat of your desert heart
G                         D
Leading me back down that road
                  Em       C
Leads back to you

(solo)
E|-----7---------------|----------------|
B|-------10p8----10----|----------------|
G|------------11----7-4h5---4h5---4h5-7-|
D|---------------------|----------------|
A|---------------------|----------------|
E|---------------------|----------------|

E|-----7---------------|----------------|
B|-------10p8----10----|----------------|
G|------------11----7-4p2-----2h4-2-0h2-|
D|---------------------|----------------|
A|---------------------|----------------|
E|---------------------|----------------|

E|-----7---------------|----------------|
B|-------10p8----10----|----------------|
G|0-----------11----7-4h5---4h5---4h5-7-|
D|---------------------|----------------|
A|---------------------|----------------|
E|---------------------|----------------|

Baby now...

(chorus)
G          D
Comes down hard
       G                      C
When I hear your voice on the radio
G                         D
Leading me back down that road
              Em          C
Leads back to you

G    D
  29 Palms
  G                     C
I feel the heat of your desert heart
G                         D
Leading me back down that road
                  Em       C
Leads back to you   you    you  yeah

(solo)
E|-----7---------------|----------------|
B|-------10p8----10----|----------------|
G|------------11----7-4h5---4h5---4h5-7-|
D|---------------------|----------------|
A|---------------------|----------------|
E|---------------------|----------------|

E|-----7---------------|----------------|
B|-------10p8----10----|----------------|
G|------------11----7-4p2-----2h4-2-0h2-|
D|---------------------|----------------|
A|---------------------|----------------|
E|---------------------|----------------|

E|-----7---------------|----------------|
B|-------10p8----10----|----------------|
G|0-----------11----7-4h5---4h5---4h5-7-|
D|---------------------|----------------|
A|---------------------|----------------|
E|---------------------|----------------|

(chorus)
G          D
Comes down hard
       G                      C
When I hear your voice on the radio
G                         D
Leading me back down that road
              Em          C
Leads back to you

G    D
  29 Palms    (e fade out ...)
exibições 18.915
Acordes para:

    0 comentários

    mostrar mais comentários

    Conseguiu tocar?

    0 tocaram 0 ainda não

    Grave um vídeo tocando 29 Palms e mande pra gente!

    00:00 / 00:00
    outros vídeos desta música
    repetir qualidade Automático
    Outros vídeos desta música
    00:00 / 00:00
    Automático
    OK