Cifra Club

Aprenda

A Volta

Roberto Carlos

Cifra: Versão 4 (violão e guitarra)
Tom: D#
Intro: Cm, Gm, Cm, Gm

Cm                            Gm 
  estou guardando o que há de bom   em mim 
Cm                       Gm 
  para lhe dar quando você   chegar 
Ab        Bb7 
 toda ternura 
   Eb   Gm   Cm 
e todo meu amor 
Gm                       Fm   Bb7 
 estou guardando pra lhe dar 
Cm                    Gm 
  e toda vez que você me beijar 
Cm                    Gm 
  a minha vida quero lhe en...tregar 
Ab          Bb7 
 e em cada beijo 
Eb     Gm   Cm 
certo ficarei 
Gm                      Fm    Bb7 
 que você não vai me deixar 
          C                           G7 
           grande demais foi sempre o nosso   amor 
           C                       G7 
           mas o destino quis nos se...parar 
              Dm            G7          C          Cm 
           e agora que está perto o dia de você chegar 
          Gm                            Fm   Bb7 
           o que há de bom vou lhe entregar 
         Cm                    Gm 
BIS        só vejo a hora de você   chegar 
         Cm                       Gm 
           pra' todo o meu amor poder   mostrar 
          Ab           Bb7 
           mas quando eu 
               Eb    Gm Cm 
           de perto te olhar 
          Gm                      Fm   Bb7 
           não sei se vou poder falar 

SOLO (Cm Gm Cm Gm G# Bb7 D# Gm Cm Gm Fm Bb7)

Cm                           Gm           
 estou guardando o que há de bom em mim para lhe dar quando você chegar
Cm                           Gm 
 estou guardando o que há de bom em mim para lhe dar quando você chegar

intro:

e|------------------------------------------------|
B|-4-3-4--3h4-3h4-3------8~-----------------------|
G|-5-3-5--3h5-3h5-3--5/7------3h5p3---3h5~--------|
D|----------------------------------5-------------|
A|------------------------------------------------|
E|------------------------------------------------|

e|------------------------------------------------|
B|-4-3-4--3h4-3h4-3------8~-----------------------|
G|-5-3-5--3h5-3h5-3--5/7------3h5p3---3h5~--------|
D|----------------------------------5-------------|
A|------------------------------------------------|
E|------------------------------------------------|


e|------------------------------------------------|
B|-4-3-4--3h4-3h4-3------8~-----------------------|
G|-5-3-5--3h5-3h5-3--5/7------3h5p3---3h5~--------|
D|----------------------------------5-------------|
A|------------------------------------------------|
E|------------------------------------------------|
  estou guardando o que há de bom   em mim 


e|----------------------------------------------------|
B|-4-3-4--3h4-3h4-3-----------------------------------|
G|-5-3-5--3h5-3h5-3---3---3h5p3--------3---3h5p3------|
D|------------------5---5-------5----5---5-------5----|
A|----------------------------------------------------|
E|--------------------------------3----------------3--|
    para lhe dar quando você   chegar 

e|----------------------------6--6*------------------|
B|-4-4*------------6--------8----8*--4~--4-4-3~------|
G|-5-5*--5--7---7---7-----8------7*--5~--5-5-3~------|
D|-----6-------8-8---8-------------------------------|
A|---------------------------------------------------|
E|---------------------------------------------------|
   toda ternura           e todo meu amor

e|-----------------------------------------------------------|
B|-----------------------------9---9-8--9---------8----------|
G|----------3---3h5p7---------10--10-8--7--7--5/7---7--5h8~--|
D|--------5---5-------5-----------------8--8-----------------|
A|-----------------------------------------------------------|
E|----------------------3------------------------------------|
  estou guardando pra lhe dar

e|-----------------------------------------------------|
B|---3-4--3---4-3--------------------------------------|
G|-5--------5-----3---3---3h5p3--------3---3h5p3---5~~-|
D|------------------5---5-------5----5---5-------5-----|
A|-----------------------------------------------------|
E|--------------------------------3--------------------|
  e toda vez que você me beijar

e|------------------------------------------------------|
B|-4-4-3-4--3h4-3h4-3-----------------------------------|
G|-5-5-3-5--3h5-3h5-3---3---3h5p3--------3---3h5p3------|
D|--------------------5---5-------5----5---5-------5~---|
A|------------------------------------------------------|
E|----------------------------------3-------------------|
  a minha vida quero lhe en...tregar 

e|----------------------------6--6*------------------|
B|-4-4*------------6--------8----8*--4~--4-4-3~------|
G|-5-5*--5--7---7---7-----8------7*--5~--5-5-3~------|
D|-----6-------8-8---8-------------------------------|
A|---------------------------------------------------|
E|---------------------------------------------------|
  e em cada beijo       certo ficarei

e|-----------------------------------------------------------|
B|-----------------------------9---9-8--9---------8~---------|
G|----------3---3h5p7---------10--10-8--7--7--5/7---7\\------|
D|--------5---5-------5-----------------8--8-----------------|
A|-----------------------------------------------------------|
E|----------------------3------------------------------------|
  que você não vai me deixar


e|-------15--17-15------15--17-15------15--17-15------17-15----15--|
B|---17----17-------17----17-------17----17-------17--------17-----|
G|-----------------------------------------------------------------|
D|-17--17---------17--17---------17--17---------17--17-------------|
A|-----------------------------------------------------------------|
E|-----------------------------------------------------------------|
   grande demais foi sempre o nosso   amor

e|-------15--17-15------15--17-15------15--17-15------17-15----15--|
B|---17----17-------17----17-------17----17-------17--------17-----|
G|-----------------------------------------------------------------|
D|-17--17---------17--17---------17--17---------17--17-------------|
A|-----------------------------------------------------------------|
E|-----------------------------------------------------------------|
   mas o destino quis nos se...parar


e|------5---------------3--------------------------------|
B|----6---------------3----------5---5-----4---4-4-3~----|
G|--7---------------4--------------5---5---5---5-5-3~----|
D|-------------------------------------------------------|
A|-------------------------------------------------------|
E|-------------------------------------------------------|
    e agora que está perto o dia de você chegar 

e|-----------------------------------------------------------|
B|-----------------------------9---9-8--9---------8----------|
G|----------3---3h5p7---------10--10-8--7--7--5/7---7--5h8~--|
D|--------5---5-------5-----------------8--8-----------------|
A|-----------------------------------------------------------|
E|----------------------3------------------------------------|
   o que há de bom vou lhe entregar 

e|------------------------------------------------------|
B|-4-4-3-4--3h4-3h4-3-----------------------------------|
G|-5-5-3-5--3h5-3h5-3---3---3h5p3--------3---3h5p3------|
D|--------------------5---5-------5----5---5-------5~---|
A|------------------------------------------------------|
E|----------------------------------3-------------------|
   só vejo a hora de você   chegar

e|------------------------------------------------------|
B|-4-4-3-4--3h4-3h4-3-----------------------------------|
G|-5-5-3-5--3h5-3h5-3---3---3h5p3--------3---3h5p3------|
D|--------------------5---5-------5----5---5-------5~---|
A|------------------------------------------------------|
E|----------------------------------3-------------------|
   pra' todo o meu amor poder   mostrar

e|----------------------------6--6*------------------|
B|-4-4*------------6--------8----8*--4~--4-4-3~------|
G|-5-5*--5--7---7---7-----8------7*--5~--5-5-3~------|
D|-----6-------8-8---8-------------------------------|
A|---------------------------------------------------|
E|---------------------------------------------------|
   mas quando eu         de perto te olhar

e|-----------------------------------------------|
B|-----------------------------9---9-8--9~~------|
G|----------3---3h5p7---------10--10-8--7~~------|
D|--------5---5-------5-----------------8~~------|
A|-----------------------------------------------|
E|----------------------3------------------------|
   não sei se vou poder falar 



   SOLO:
e|--------------------------------------------------------|
B|------------------------------8~------------------------|
G|-------------------------5/7------5-3---3h5~------------|
D|--------------------------------------5-----------------|
A|---3*--5*-6*-5*-3*-6*-5~--------------------------------|
E|-3*-----------------------------------------------------|

e|------------------------------6~------------------------|
B|--------------------------------------------------------|
G|-------------------------5/7----------------------------|
D|--------------------------------------------------------|
A|---3*--5*-6*-5*-3*-6*-5~--------------------------------|
E|-3*-----------------------------------------------------|


e|--------------------------------------------------------|
B|-10h11-10h11--8h9--8h9---9p8\---------------------------|
G|-10h12-10h12--8h10-8h10-10p8\-------10------------------|
D|-------------------------------8/10----10-8~------------|
A|--------------------------------------------------------|
E|--------------------------------------------------------|


e|----------------------------------8-8~------------------|
B|--------------------------------------------------------|
G|--------------10p8----10p8--10/12-----------------------|
D|---------8-11------11-----------------------------------|
A|--6/8-11------------------------------------------------|
E|--------------------------------------------------------|


e|--------------------------------------------------------|
B|-x-11-10--11-11-----------------------------------------|
G|-x-12-10--12-12-------10--------------------------------|
D|-----------------8h10----10-8---------------------------|
A|------------------------------10------------------------|
E|--------------------------------------------------------|


e|--------------------------------------------------------|
B|--9--9-8--9~-----6--------------------------------------|
G|-10-10-8--7~--7----7------------------------------------|
D|----------8~--8------8----------------------------------|
A|--------------------------------------------------------|
E|--------------------------------------------------------|


(Repete tudo a partir de: " Grande demais foi sempre...."


Final:
e|----------------------------------------------------|
B|-4-3-4--3h4-3h4-3-----------------------------------|
G|-5-3-5--3h5-3h5-3---3---3h5p3--------3---3h5p3------|
D|------------------5---5-------5----5---5-------5----|
A|----------------------------------------------------|
E|--------------------------------3----------------3--|
estou guardando o que há de bom em mim para lhe dar quando você chegar
estou guardando o que há de bom em mim para lhe dar quando você chegar
estou guardando o que há de bom em mim para lhe dar quando você chegar
Composição de Erasmo Carlos / Roberto Carlos
10.620 exibições
    • ½ Tom
    • A
    • Bb
    • B
    • C
    • Db
    • D
    • Eb
    • E
    • F
    • F#
    • G
    • Ab
  • Adicionar à lista

    0 comentários

    Mostrar mais comentários

    Conseguiu tocar?

    0 Tocaram 0 Ainda não

    Grave um vídeo tocando A Volta e mande pra gente!

    00:00 / 00:00
    outros vídeos desta música
    repetir qualidade Automático
    Outros vídeos desta música
    00:00 / 00:00
    Automático

    Cifra Club Pro

    Aproveite o Cifra Club com benefícios exclusivos e sem anúncios
    7 dias grátis
    Cifra Club Pro
    Aproveite o Cifra Club com benefícios exclusivos e sem anúncios
    7 dias grátis
    OK