Cifra Club

Aprenda

Joio Ou Trigo

Rodolfo Abrantes

Cifra: Principal (violão e guitarra)
tom: A
[Intro]

E|-------------------------------------------------------|
B|-------------------------------------------------------|
G|-------------------------------------------------------|
D|---7--9--9/11--9--------9--11--9-------7----------11~--|
A|-----------------11---------------9-------9--9/12------|
E|-------------------------------------------------------|

E|-------------------------------------------------------|
B|-------------------------------------------------------|
G|--------------------------------------------------9~---|
D|---7--9--9/11--9--------9--11--9-------7---------------|
A|-----------------11---------------9-------9--9/12------|
E|-------------------------------------------------------|

F#m                     E
Eis-me aqui já tirei a máscara
 D
Não esconda o teu rosto de mim         2x
F#m                    E              
Eis-me aqui sem minhas armas
 D
Diante do fogo

 F#m                  E               D
Só tu sabes quem vai ganhar quem vai perder
 F#m                    E               D
Só tu sabes quem vai subir quem vai descer
 F#m                   E                D
Só tu sabes quem quer sumir quem quer aparecer
 F#m                  E                 D
Só tu sabes quem vai desistir quem vai permanecer

  A             E      F#m    D
Quem sou eu Senhor, joio ou trigo?                        2x
  A             E         F#m                 D 
Quem sou eu Senhor, mais um impostor ou seu amigo?

  A                                E                    F#m                 D
Quando o fogo descer eu quero queimar até que eu venha ser só o que       o fogo deixar                                                      4x
A         C#m       F#m  D
Eu quero ser um contigo            4x
Composição de Rodolfo Abrantes
86.823 exibições
    • ½ Tom
    • A
    • Bb
    • B
    • C
    • Db
    • D
    • Eb
    • E
    • F
    • F#
    • G
    • Ab
  • Adicionar à lista

    0 comentários

    Ver todos os comentários
    00:00 / 00:00
    Outros vídeos desta música
    Repetir Qualidade Automático
    Outros vídeos desta música
    00:00 / 00:00
    Automático

    Cifra Club Pro

    Aproveite o Cifra Club com benefícios exclusivos e sem anúncios
    Cifra Club Pro
    Aproveite o Cifra Club com benefícios exclusivos e sem anúncios
    OK