Cifra Club

Cai Fora

Rogerio Ferrari

Cifra: Principal (violão e guitarra)
tom: B
(intro) B E F# B A# G#m E F# B

E|---------------------------------------------------|
B|-4-4-2---5--5-5-5-4---7--7-7-7-9-7--4-5-4-2-4-2----|
G|-------4------------6---------------------------4--|
D|---------------------------------------------------|
A|---------------------------------------------------|
E|---------------------------------------------------|

E|---------------------------------------------------------------------|
B|-4-4-2---5--5-5-5-9-9-9-7--7-7-7-4-----------------------------------|
G|-------4----------------------------6--4-----4-----4------4--4-5-6---|
D|-----------------------------------------4h6---4h6----4h6------------|
A|---------------------------------------------------------------------|
E|---------------------------------------------------------------------|

            C#m                E
Eu to por dentro desse amor bandido
         B
Pra mim tanto faz
           C#m                E
Não me interessa ser correspondido
           B
Nem to te amando mais
         C#m                 E                       F#
Naquele tempo eu sentia um amor que me trazia muita dor
               G#m
Até pensava em depressão
           C#m                     E
Mas com o tempo eu percebi que você
                          F#
Nem tava ligando pro meu sentimento
          B
Puro de amor

(refrão)
        E
Cai fora
           F#                  B
Não to precisando de alguem assim
             G#m                E
Que so me maltrata e me faz infeliz
                 F#             B
Mas o seu ta guardado, pode esperar

        E
Cai fora
                 F#               B
Pois eu sou mais eu, aprendi assim
              G#m                    E
Ninguém me segura, eu quero é divertir
                      F#
Chega de papo, da lincença
               B
Que eu vou sair

( E F# B A# G#m E F# B )

(repete tudo)
Composição de Claudenir Barbosa / ROGERIO FERRARI
Colaboração e revisão:
  • Tiago Kogut
94 exibições
    • ½ Tom
    • A
    • Bb
    • B
    • C
    • Db
    • D
    • Eb
    • E
    • F
    • F#
    • G
    • Ab
  • Adicionar à lista

    0 comentários

    Ver todos os comentários

    Conseguiu tocar?

    1 Tocaram 0 Ainda não

    Grave um vídeo tocando Cai Fora e nos envie!

    00:00 / 00:00
    Outros vídeos desta música
    Repetir Qualidade Automático
    Outros vídeos desta música
    00:00 / 00:00
    Automático

    Cifra Club Pro

    Aproveite o Cifra Club com benefícios exclusivos e sem anúncios
    Cifra Club Pro
    Aproveite o Cifra Club com benefícios exclusivos e sem anúncios
    OK