Cifra Club

Rainha

Rogerio Ferrari

Cifra: Principal (violão e guitarra)
tom: A
(intro 2x) A D9

E|-----------------------------5-7-9-7-5-4-5-4h5--|
B|----2h5-5-5-5-5-3h5-3-2-2h3---------------------|
G|------------------------------------------------|
D|------------------------------------------------|
A|------------------------------------------------|
E|------------------------------------------------|

A            D9           A
Aqui do meu lado tem alguém
             D9              A
Que diz me amar e me quer bem
             E  D       A       D E
Não posso negar, amo ela também
A           D9                  A
Sair pelas ruas, sorrir sem querer
           D9                   A  A E F#m
Só tem sentido se tiver sua alegria
            Bm E           A
Porque você é a minha rainha
Bm          D          E
Você é meu mar, é meu porto seguro
Bm            D           E
Também é meu sol, em todo amanhecer

(refrão)
A               D9
Foi DEUS, foi DEUS
               A
Que planejou assim
                  D9                  A
Esse namoro encantado pra você e pra mim
                D9
Meu sonho, meu céu
             A
Minha companhia
                      D9       E          A
A minha história é você minha doce rainha

(  A D9  )
E|-----------------------------5-7-9-7-5-4-5-4h5--|
B|----2h5-5-5-5-5-3h5-3-2-2h3---------------------|
G|------------------------------------------------|
D|------------------------------------------------|
A|------------------------------------------------|
E|------------------------------------------------|

A           D9                  A
Sair pelas ruas, sorrir sem querer
           D9                   A  A E F#m
Só tem sentido se tiver sua alegria
            Bm E           A
Porque você é a minha rainha
Bm          D          E
Você é meu mar, é meu porto seguro
Bm            D           E
Também é meu sol, em todo amanhecer

(refrão 3x)
A               D9
Foi DEUS, foi DEUS
               A
Que planejou assim
                  D9                  A
Esse namoro encantado pra você e pra mim
                D9
Meu sonho, meu céu
             A
Minha companhia
                      D9       E          A
A minha história é você minha doce rainha    

(  A D9  )
E|-----------------------------5-7-9-7-5-4-5-4h5--|
B|----2h5-5-5-5-5-3h5-3-2-2h3---------------------|
G|------------------------------------------------|
D|------------------------------------------------|
A|------------------------------------------------|
E|------------------------------------------------|
Composição de Claudenir Barbosa / ROGERIO FERRARI
Colaboração e revisão:
  • Tiago Kogut
68 exibições
    • ½ Tom
    • A
    • Bb
    • B
    • C
    • Db
    • D
    • Eb
    • E
    • F
    • F#
    • G
    • Ab
  • Adicionar à lista

    0 comentários

    Ver todos os comentários

    Conseguiu tocar?

    1 Tocaram 0 Ainda não

    Grave um vídeo tocando Rainha e nos envie!

    00:00 / 00:00
    Outros vídeos desta música
    Repetir Qualidade Automático
    Outros vídeos desta música
    00:00 / 00:00
    Automático

    Cifra Club Pro

    Aproveite o Cifra Club com benefícios exclusivos e sem anúncios
    Cifra Club Pro
    Aproveite o Cifra Club com benefícios exclusivos e sem anúncios
    OK