Cifra Club

Moda do Lenço

Rolando Boldrin

Cifra: Principal (violão e guitarra)
Tom: E
Intro

             A      B7           E

     1-------9--9---7--7---------------------------------
     2-------10-10--------9h10--\5-----------------------
     3---/9---------------------------------------------- 
     4--------------------------------------------------- 
     5--------------------------------------------------- 
     6--------------------------------------------------- 

                 B7            E

     1--------------------------------------------------- 
     2---4h5--5--5--4--/10--9--7--5----------------------
     3---------------------------------------------------
     4--------------------------------------------------- 
     5--------------------------------------------------- 
     6--------------------------------------------------- 

                 B7                E

     1--------------------------------------------------- 
     2---4h5--5--5--4--/10--9--/7--5---------------------
     3---------------------------------------------------
     4--------------------------------------------------- 
     5--------------------------------------------------- 
     6--------------------------------------------------- 

         A           B7          E

     1---------0-----------2-----0-----------------------
     2---------------------------0-----------------------
     3-------2-----------2-------1-----------------------
     4-----2-----------1---------2-----------------------
     5---0-----------2-----------2-----------------------
     6---------------------------0-----------------------



      B7          E
Minha vida é um romance,
       B7           E
De tristeza e de ilusão.
  A
Parece que o destino,
        B7           E
Quis me fazer traição.
      A     B7   E
A esperança é perdida,
       B7          E
Quando conto minha vida,
       B7           E
Dói em qualquer coração.
       B7           E


     B7         E
Já amei já fui amado,
     B7          E
Já vivi bem satisfeito.
     A
Já gozei a minha infância,
      B7           E
Já tirei grande proveito.
     A    B7  E
Exaltei a mocidade,
         B7           E
Nunca pensei que a saudade,
      B7           E
Fosse morar no meu peito.
      B7           E


   B7               E
Na festa de Santo Antônio,
   B7              E
Eu fui dançar no salão.
     A
Encontrei uma garota,
    B7          E
De uma linda feição.
     A     B7     E
E convidei pra dançar,
     B7           E
E senti o amor cravar,
          B7      E
Dentro do meu coração.
          B7      E


   B7             E
Eu perguntei à donzela,
       B7          E
Se ela era comprometida.
    A
Ela aí me respondeu,
          B7             E
Eu nunca amei nem fui querida.
      A      B7   E
Comprovei essa amizade,
        B7          E
Que vem trazendo saudade,
    B7             E
Pro resto da minha vida.
    B7             E


   B7         E
Se decorreram dez meses,
    B7          E
Dessa amizade latente.
    A
Mas o destino não quis,
      B7                  E
Que o nosso amor fosse em frente.
       A       B7  E
Veio a morte enfurecida,
       B7           E
E carregou minha querida,
       B7         E
Que eu amava loucamente.
       B7         E


    B7        E
Uma vez me avisaram,
      B7         E
que a garota adoeceu.
      A
Fui urgente a casa dela,
      B7          E
Saber o que aconteceu.
      A    B7     E
Nessa hora de aflição,
      B7             E
Tava com um lenço na mão,
        B7         E
Pegou o lenço e me deu.
        B7         E


   B7          E
Me disse desanimada,
     B7                E
Para o meu mal não tem cura.
   A
Eu vou morar lá no céu,
      B7           E
Com Jesus lá nas alturas.
      A     B7      E
Se despediu de seus pais,
      B7              E
Disse adeus pra nunca mais,
      B7          E
Nessa hora de amargura.
      B7          E


  B7             E
Comigo guardei o lenço,
    B7              E
Que recebi das mãos dela.
     A
Roxo da cor da saudade,
   B7               E
Bordado em letra amarela.
      A       B7    E
Já perdi toda a esperança,
     B7            E
Hoje só resta a lembrança,
    B7               E
Do amor que eu tinha nela.
    B7               E


   B7          E
Um A um M e um B,
   B7            E
As letra do nome seu.
      A
Nunca mais tive alegria,
       B7        E
Depois que ela morreu.
     A    B7    E
Inda hoje choro tanto,
  B7                E
Enxugo o meu triste pranto,
   A           B7   E
No lenço que ela me deu.
   B7               E

exibições 367
Acordes para:
    Colaboração e revisão:
    • romulo vicente

    0 comentários

    mostrar mais comentários

    Conseguiu tocar?

    0 tocaram 0 ainda não

    Grave um vídeo tocando Moda do Lenço e mande pra gente!

    00:00 / 00:00
    outros vídeos desta música
    repetir qualidade Automático
    Outros vídeos desta música
    00:00 / 00:00
    Automático
    OK