Cifra Club

Aprenda

Inter Outro Amor

Romário Acústico

Cifra: Principal (violão e guitarra)
Tom: G
[Intro] C9  G  C9  G  D9  G

E|-----3-2-2h3p2-0-0----------------------8-|
B|-2/4---------------3-3-3-1h3-3/5----5/8---|
G|---------------------------------0--------|
D|------------------------------------------|
A|------------------------------------------|
E|------------------------------------------|

[primeira Parte]

Me Desculpe  Ai Eu Não Quis Eu Te  Machucar
C9        G            Em7                          D9
Amor Me Desculpe Ai Não  Quis Magoar , Se Você Não Voltar 
Am7          C9          G                    D9
Vou ficar no bar bebê para você se volta para mim

Oh oh Oh Oh 

[Solo] C9  G  C9  G  D9  G

E|-------15-14-14h15p14-12-12\10------------|
B|------------------------------------------|
G|-14/16------------------------------------|
D|------------------------------------------|
A|------------------------------------------|
E|------------------------------------------|

E|-10-10-10-7h10-10/12----------------------|
B|------------------------------------------|
G|------------------------------------------|
D|------------------------------------------|
A|------------------------------------------|
E|------------------------------------------|

E|-------15-14-14h15p14-12-12\10------------|
B|------------------------------------------|
G|-14/16------------------------------------|
D|------------------------------------------|
A|------------------------------------------|
E|------------------------------------------|

E|-10-10-10-7h10-10/12----------------------|
B|------------------------------------------|
G|------------------------------------------|
D|------------------------------------------|
A|------------------------------------------|
E|------------------------------------------|

E|--------7-8-7---------7-8----7------------|
B|-7/8-10--------7/8-10-----10---8-10-7-8---|
G|------------------------------------------|
D|------------------------------------------|
A|------------------------------------------|
E|------------------------------------------|

E|--------------10-8------------------------|
B|-5-7-5\3--5/7-----------------------------|
G|------------------------------------------|
D|------------------------------------------|
A|------------------------------------------|

Vou ficar no bar bebê para você se para mim
C9     G/B           Em7           D9
Garçom coloca  uma mais uma garrafa de  Whisky

Na mesa esse copo essa dor no peito
Am7   C9   G      D9
Essa minha  da paixão
C9     G/B           Em7           D9
Eu não vou conseguir Inter outro amor
Am7   C9   G      D9
Não vou conseguir ficar sem o seu amor 
C9     G/B           Em7           D9
Desculpa aí não foi minha intenção te machucar foi

Me Desculpe  Ai Eu Não Quis Eu Te  Machucar
C9     G/B           Em7           D9
Amor Me Desculpe Ai Não  Quis Magoar , Se Você Não Voltar 
Am7   C9   G      D9
Vou ficar no bar bebê para você se volta para mim

Vou ficar no bar bebê para você se volta para mim
C9     G           Em7           D9
Garçom coloca  uma mais uma garrafa de  Whisky

Na mesa esse copo essa dor no peito
C9     G/B   Em7  D9
Essa minha  da paixão

Oh oh Oh Oh 

[Solo] C9  G  C9  G  D9  G

[pré-refrão] 

Eu não vou conseguir Inter outro Amor
C9     G           Em7           D9
Não vou conseguir ficar sem o seu amor 
C9     G/B      Em7           D9
Desculpa aí não foi minha intenção te machucar foi

Vou ficar no bar bebê para você se volta para mim
C9     G           Em7           D9
Garçom coloca  uma mais uma garrafa de  Whisky

Eu não vou conseguir Inter outro amor
C9     G           Em7           D9
Não vou conseguir ficar sem o seu amor
Composição de Romário Acústico
Colaboração e revisão:
  • Romario Gomes
12 exibições
    • ½ Tom
    • A
    • Bb
    • B
    • C
    • Db
    • D
    • Eb
    • E
    • F
    • F#
    • G
    • Ab
  • Adicionar à lista

    0 comentários

    Mostrar mais comentários

    Conseguiu tocar?

    0 Tocaram 0 Ainda não

    Grave um vídeo tocando Inter Outro Amor e mande pra gente!

    00:00 / 00:00
    outros vídeos desta música
    repetir qualidade Automático
    Outros vídeos desta música
    00:00 / 00:00
    Automático

    Cifra Club Pro

    Aproveite o Cifra Club com benefícios exclusivos e sem anúncios
    7 dias grátis
    Cifra Club Pro
    Aproveite o Cifra Club com benefícios exclusivos e sem anúncios
    7 dias grátis
    OK