Cifra Club

Aprenda

Amor e Paixão

Ronny e Max

Cifra: Principal (violão e guitarra)
Tom: E
       
              E                         A               F#m      B  E

e|----------------------------------------------------------|
B|-------------------------2-------2-4-5-5-----4--5---------|
G|--1-2-4-4----2-1-----1-2-4----4-2-------------------6-4---|
D|----------------------------------------------------------|
A|----------------------------------------------------------|
E|----------------------------------------------------------|

           E                 B               A
Você me pergunta porque estou assim os olhos chorando
B             E
tristeza sem fim
                           B            A      B
Você sempre alegre cheia de razão e eu dividindo amor
     E
e paixão


B|------5-4--------|
G|-----4---6-4-6---|
D|--4/6------------|

C#m      G#m            A              E  (E B C#m)
Coração bandido esse meu vive traindo você  
C#m       G#m             A                    (A B)
Coração ingênuo é o teu todo esse tempo sem perceber



(Refrão)

                       E                 A    E
Eu não vou mais me esconder vou contar tudo pra você
                        A (D  A)
Contar que beijei outra boca        dizer que já tem mais
     F#m                        B
de um ano dizer também que eu te amo mais gosto de
E (A E)
outra
                        E            A E
Mas decidi  que assim não da  que e contigo meu lugar
               A  (D  A)                  F#m
me perdoa por favor         paixão é só obsessão  no fim quem
             B                         E   (A E)
sofre é o coração que perde um verdadeiro amor 

                 F#m             B             A
Coração estava dormindo e acordou     mas  'tá sujeito a
      E
solidão 

              E                         A               F#m      B  E

e|----------------------------------------------------|
B|-------------------------2-------2-4-5-5-----4--5---|
G|--1-2-4-4----2-1-----1-2-4----4-2-------------------|
D|----------------------------------------------------|
A|----------------------------------------------------|
E|----------------------------------------------------|

B|------5-4---------|
G|-----4---6-4--6---|
D|--4/6-------6-----|

C#m      G#m            A              E  (E B C#m)
Coração bandido esse meu vive traindo você  
C#m       G#m             A                    (A B)
Coração ingênuo é o teu todo esse tempo sem perceber



(Refrão)

                       E                 A    E
Eu não vou mais me esconder vou contar tudo pra você
                        A (D  A)
Contar que beijei outra boca        dizer que já tem mais
     F#m                        B
de um ano dizer também que eu te amo mais gosto de
E (A E)
outra
                        E            A E
Mas decidi  que assim não da  que e contigo meu lugar
               A  (D  A)                  F#m
me perdoa por favor         paixão é só obsessão  no fim quem
             B                         E
sofre é o coração que perde um verdadeiro amor 

                 F#m             B
Coração estava dormindo e acordou     mas  'tá sujeito a
        A E F#m E
solidão 


by:John Meira
Composição de Rafael Dias / Silas Barcelos
Colaboração e revisão:
  • Johnathan Meira
7.030 exibições
    • ½ Tom
    • A
    • Bb
    • B
    • C
    • Db
    • D
    • Eb
    • E
    • F
    • F#
    • G
    • Ab
  • Adicionar à lista

    0 comentários

    Mostrar mais comentários
    00:00 / 00:00
    outros vídeos desta música
    repetir qualidade Automático
    Outros vídeos desta música
    00:00 / 00:00
    Automático

    Cifra Club Pro

    Aproveite o Cifra Club com benefícios exclusivos e sem anúncios
    7 dias grátis
    Cifra Club Pro
    Aproveite o Cifra Club com benefícios exclusivos e sem anúncios
    7 dias grátis
    OK