Cifra Club

Complication

ROOKiEZ is PUNK'D

Cifra: Principal (violão e guitarra)
tom: E
Intro:
    C#m7    Bsus2   A     E               C#m7    Bsus2 A
E|---------------------------------     -----------------------------
B|-----5-------2-------------------     -----5-------2---------------
G|-------4-------4-----2-----------     -------4---------------------
D|---6-------4-------2---------2---(x3) ---6-------4---2-2-2---------
A|-4-------2-------0-----2---2---2-     -4-------2-----0-0-0---------
E|-------------------------0-------     -----------------------------
    A         B              E               C#m             A
E|-1/19--19--19-17-16-17-16--------------------------------19-----
B|--------------------------19--17-16-17-16-------16-17-16--------
G|------------------------------------------18-18-----------------
D|----------------------------------------------------------------
A|----------------------------------------------------------------
E|----------------------------------------------------------------
   B            C#m                           A
E|-19b21-19-17----------------17-------------------------------------
B|-------------16--17--16--17----------------16h17p16-16-------------
G|-------------------------------------16-18-------------18p16-------
D|---------------------------------/18-------------------------16p16-
A|-------------------------------------------------------------------
E|-------------------------------------------------------------------
             B                              E
E|----------------------------------------------------------------------
B|----------16h17p16-16-----------------------16h17p16-16---------------
G|----16-18-------------18p16-----------16-18-------------18p16---------
D|-18-------------------------18p16--18-------------------------18p16---
A|----------------------------------------------------------------------
E|----------------------------------------------------------------------
    C#                    A                          B                  E
E|-----------------------------------------------------------------------
B|-----------------------17-16----17-16----17-16----17-16----------------
G|-----------------------------18-------18-------18-------18-16----------
D|-18-16-14-16-14-16-18-----------------------------------------18-16-14-
A|-----------------------------------------------------------------------
E|-----------------------------------------------------------------------

Verso:
    Asus2       B           C#m7
E|---------------------------------------------------
B|-------0-----------4-----------5-----------5p4-----
G|-----2---2-2-----4---4-4-----4---4-4-----4-----4---
A|---2-----------4-----------6-----------6---------6-
A|-0-----------2-----------4-----------4-------------
E|---------------------------------------------------
    Asus2       B           C#m7
E|-------------------------------------7-----4-------
B|-------0-----------4-----------5-------5-----5---5-
G|-----2---2-2-----4---4-4-----4---4-4-----4-----4---
A|---2-----------4-----------6-----------------------
A|-0-----------2-----------4-------------------------
E|---------------------------------------------------
    Asus2       B           C#m7
E|---------------------------------------------------
B|-------0-----------4-----------5-----------5p4-----
G|-----2---2-2-----4---4-4-----4---4-4-----4-----4---
A|---2-----------4-----------6-----------6---------6-
A|-0-----------2-----------4-----------4-------------
E|---------------------------------------------------
    Asus2       B           C#m7
E|-------------------------------------7-----4-------
B|-------0-----------4-----------5-------5-----5---5-
G|-----2---2-2-----4---4-4-----4---4-4-----4-----4---
A|---2-----------4-----------6-----------------------
A|-0-----------2-----------4-------------------------
E|---------------------------------------------------

Verso:
    Asus2       B           C#m7
E|---------------------------------------------------
B|-------0-----------4-----------5-----------5p4-----
G|-----2---2-2-----4---4-4-----4---4-4-----4-----4---
A|---2-----------4-----------6-----------6---------6-
A|-0-----------2-----------4-----------4-------------
E|---------------------------------------------------
    Asus2       B           C#m7
E|-------------------------------------7-----4-------
B|-------0-----------4-----------5-------5-----5---5-
G|-----2---2-2-----4---4-4-----4---4-4-----4-----4---
A|---2-----------4-----------6-----------------------
A|-0-----------2-----------4-------------------------
E|---------------------------------------------------
    Asus2       B           C#m7
E|---------------------------------------------------
B|-------0-----------4-----------5-----------5p4-----
G|-----2---2-2-----4---4-4-----4---4-4-----4-----4---
A|---2-----------4-----------6-----------6---------6-
A|-0-----------2-----------4-----------4-------------
E|---------------------------------------------------
    Asus2       B           C#m7
E|-------------------------------------4-------------
B|-------0-----------4-----------5-----5-------------
G|-----2---2-2-----4---4-4-----4---4-4-4-------------
A|---2-----------4-----------6-----------------------
A|-0-----------2-----------4-------------------------
E|---------------------------------------------------

Solo:
    A5      B5      G#5      C#5
E|----------------------------------------------------------
B|-12------12------12---------------------------------------
G|----11-9----11-9----11-9--8-9---9-11--9--9----------------
D|------------------------------9---------------------------
A|----------------------------------------------------------
E|----------------------------------------------------------
    A5                        B5                        C#5
E|---------------------------------------9------11-----12----
B|--------9---10---9---------10b12-10-9--12b14--14b16--15b17-
G|-9-11-9---9----9---9-9-11----------------------------------
D|-----------------------------------------------------------
A|-----------------------------------------------------------
E|-----------------------------------------------------------

E|------------------0---0---0--
B|-2---4---4---5----0---4---5--
G|-2---2---4---4----2---2---4--
D|-2---2---4-------------------
A|-----------------------------
E|-----------------------------

Outro:
    C#m7    Bsus2   A     E               C#m7    Bsus2 A
E|---------------------------------     -----------------------------
B|-----5-------2-------------------     -----5-------2---------------
G|-------4-------4-----2-----------     -------4---------------------
D|---6-------4-------2---------2---(x3) ---6-------4---2-2-2---------
A|-4-------2-------0-----2---2---2-     -4-------2-----0-0-0---------
E|-------------------------0-------     -----------------------------
00:00 / 00:00
Outros vídeos desta música
Repetir
Outros vídeos desta música
Composição de Rookiez Punk'd
Colaboração e revisão:
  • Felipe Santiago
3.421 exibições
    • ½ Tom
    • A
    • Bb
    • B
    • C
    • Db
    • D
    • Eb
    • E
    • F
    • F#
    • G
    • Ab
  • Adicionar à lista

    0 comentários

    Ver todos os comentários

    Entre para oCifra Club PRO

    Tenha acesso a benefícios exclusivos no App e no Site

    • Chega de anúncios

    • Prioridade de compra em lançamentos

    • Mais recursos no app do Afinador

    • Atendimento Prioritário

    • Descontos nos produtos Cifra Club

    • Ajude a produzir mais conteúdo

    00:00 / 00:00

    Cifra Club Pro

    Aproveite o Cifra Club com benefícios exclusivos e sem anúncios
    Cifra Club Pro
    Aproveite o Cifra Club com benefícios exclusivos e sem anúncios
    OK