Cifra Club

Anjo

Roupa Nova

Cifra: Principal (violão e guitarra)
tom: D
[Intro] D  Bm7  Em7  A7

E|--------------------------------------------------------|
B|------10~~---12-10--------------------------------------|
G|-9/11--------------9/11--9~~----------------9--9/11~~---|
D|------------------------------7/9--7~~--9-7-------------|
A|--------------------------------------------------------|
E|--------------------------------------------------------|

E|--------------------------------------------------------|
B|----------------8-8/11~~--------------------------------|
G|-9-7---6-7-9-11-----------------------------------------|
D|-----9--------------------7-7/9/7--9-9/12~~-------------|
A|--------------------------------------------------------|
E|--------------------------------------------------------|

 D       D7M/9         G7M  D/F#
Se você vê estrelas demais
 Em7           A7             F#/A#  B7
Lembre que um sonho não volta atrás
               E7(9)      G/A   A7  D
Chega perto e diz "an___jo"
 D       D7M/9           G7M  D/F#
Se você sente o corpo colar
 Em7         A7           F#/A#  B7
Solte o seu medo bem devagar
               E7(9)  G/A   A7  D  B7
Chega perto e diz "an_____jo"
                  E7(9)   G/A   A7
Bem mais perto e diz "an_____jo"

 Bm     Bm7M     Bm7
Se uma coisa louca
        Bm6
Sai do seu olhar
 G7M       D/F#
Fique em silêncio
 G7M      F#m7   G7M
Deixe o amor entrar
  G7M           F#m7        E7(9)
Pra que tanta pressa de chegar
       Em7             G9   B7
Se eu sei o jeito e o lugar
             Em7         A7  D
Se eu sei o jeito e o lugar

[Final] D  Bm7  Em7  A7
00:00 / 00:00
Outros vídeos desta música
Repetir
Outros vídeos desta música
Composição de Claudio Rabello / Dalto / Renato Correa
Colaboração e revisão:
689.998 exibições
    • ½ Tom
    • A
    • Bb
    • B
    • C
    • Db
    • D
    • Eb
    • E
    • F
    • F#
    • G
    • Ab
  • Adicionar à lista

    0 comentários

    Ver todos os comentários

    Conseguiu tocar?

    26 Tocaram 3 Ainda não

    Grave um vídeo tocando Anjo e nos envie!

    Entre para oCifra Club PRO

    Tenha acesso a benefícios exclusivos no App e no Site

    • Chega de anúncios

    • Prioridade de compra em lançamentos

    • Mais recursos no app do Afinador

    • Atendimento Prioritário

    • Descontos nos produtos Cifra Club

    • Ajude a produzir mais conteúdo

    00:00 / 00:00

    Cifra Club Pro

    Aproveite o Cifra Club com benefícios exclusivos e sem anúncios
    Cifra Club Pro
    Aproveite o Cifra Club com benefícios exclusivos e sem anúncios
    OK