Notificações Amigos pendentes

      Roy Orbison

      Pretty Woman

      377.398 exibições
      Tom: A
      Introdução: 
      
      
      E|-----------------------------------------------------|
      B|-----------------------------------------------------|
      G|-----------------------------------------------------|
      D|---------0---------------0---------------------------|
      A|-------2---------------2-----------------------------|
      E|-0-0-4-----------0-0-4-------------------------------|
      
      
      E|-----------------------------------------------------|
      B|-----------------------------------------------------|
      G|-----------------------------------------------------|
      D|---------0-4-2-0---------0-4-2-0---------------------|
      A|-------2---------------2-----------------------------|
      E|-0-0-4-----------0-0-4-------------------------------|
      
      
      E|-----------------------------------------------------|
      B|-----------------------------------------------------|
      G|-----------------------------------------------------|
      D|---------0-4-2-0---------0-4-2-0---------------------|
      A|-------2---------------2-----------------------------|
      E|-0-0-4-----------0-0-4-------------------------------|
      
      
      
      Primeira Parte:
      
              A
      Pretty woman
               F#m
      Walkin' down the street
              A
      Pretty woman
                  F#m
      The kind I like to meet
              D
      Pretty woman
                 E
      I don't believe you
      
      You're not the truth
                                       (Riff)
      No one could look as good as you
      
      Mercy
      
              A
      Pretty woman
                 F#m
      Won't you pardon me
              A
      Pretty woman
                  F#m
      I couldn't help but see
              D
      Pretty woman
                     E
      That you look lovely 
      
      As can be
                                   (Riff)
      Are you lonely just like me?
      
      
      Segunda Parte:
      
      Dm
         Pretty woman 
        G
      Stop awhile
      C
        Pretty woman 
       Am
      Talk awhile
      Dm
         Pretty woman 
       G                  C
      Give your smile to me
      
      Dm
         Pretty woman 
       G
      Yeah, yeah, yeah
      C
        Pretty woman 
       Am
      Look my way
      Dm
         Pretty woman 
       G                    C  A
      Say you'll stay with me
      
      
      Terceira Parte:
      
           F#m
      'Cuz I need you
      D                 F
        I'll treat you right
      A               F#m
        Come with me baby
      D           (Riff)
        Be mine tonight
      
      
      Quarta Parte:
      
              A
      Pretty woman
             F#m
      Don't walk on by
              A
      Pretty woman
             F#m
      Don't make me cry
              D
      Pretty woman
             E
      Don't walk away, hey, ok
      
      If that's the way it must be, ok
      
      
      I guess I'll go on home, it's late
      
      There'll be tomorrow night, but wait
      
      What do I see?
      
      (Riff)
      
      
      Is she walkin' back to me?
      
      Yeah, she's walkin' back to me
      
      Oh, oh, pretty woman
        Composição: Bill Dees / Roy OrbisonColaboração e revisão:
        • v.inny
        • mss99gamer
        • SégO
        • clebaobartasom
        • +3

        Comentários 20

        140 .
        • coga coga: Em 13/02/2016 13:05

          Nesta parte troca o D maior pelo D menor

          F#m Dm E
          'Cause I need you, I'll treat you right.
          A

        • Victor Victor: Em 31/01/2016 18:09

          alguém sabe o ritmo dos acordes?

        • Márcio Márcio: Em 20/01/2016 13:22

          Muito massa essa música!

        • Iago Iago: Em 03/05/2014 11:48

          (Riff 2)
          D--------------4-2--0-
          B---------2-5----------
          E--0-0-4---------------
          ae vc repete de novo

          • filipe filipe: Em 18/07/2016 10:42

            dá no mesmo

        • tiotoicim tiotoicim: Em 03/11/2013 18:55

          Único erro no Riff 2 é que não se toca esse último 2. Está dizendo para tocar o 5 na corda D, mas eu acho mais fácil tocar a corda G solta.

        • sofia.pedroso.58 sofia.pedroso.58: Em 30/09/2013 13:56

          até que é fácil. eu só me perco um pouquinho ali na riff 2 mas só treina um pouco que eu domino :)

        • slayer2596 slayer2596: Em 16/09/2013 22:49

          Que graçada essa música HUEHUE

        • matheusalonso19 matheusalonso19: Em 09/08/2013 19:58

          video aula !!

        • robegui robegui: Em 17/02/2013 22:07

          very nice...

        140 cancelar

        conseguiu tocar?

        • •••

        covers

        Grave um vídeo tocando Pretty Woman e mande pra gente!

        Ex.: http://www.youtube.com/watch?v=0IvSvIwGdwk
        ver covers de outras músicas »
        0:00 / 0:00

        Capítulos

          3 versões de violão dificuldade exibições contribuição e correção
          3 versões de guitarra dificuldade exibições contribuição e correção
          3 versões de cavaco dificuldade exibições contribuição e correção
          3 versões de teclado dificuldade exibições contribuição e correção
          3 versões de baixo exibições contribuição e correção
          3 versões de gaita exibições contribuição e correção
          3 versões de Guitar Proformatodownloadscontribuição
          1 versão de partiturasformatodownloadscontribuição
          play/pausefechar subir/descer velocidade
          6ª corda E5ª corda A4ª corda D3ª corda G2ª corda B1ª corda E
            acordes
            transcrição verificada v.inny instrutor de guitarra
            publicidade
            fechar
            ok