Cifra Club

Aprenda

Foguete

Rubel

Cifra: Principal (violão e guitarra)
tom: D
  Bm7              Em7
Tantas vezes eu soltei foguete
      F#7                   Bm7
Imaginando que você já vinha
                  Em7
Ficava cá no meu canto calado
                F#7
Ouvindo a barulheira
                 Bm7    B7
Que a saudade tinha              
       Em7          A7           D7m
É como diz João Cabral de Mello Neto
          F#7                    Bm7
Um galo sozinho não tece uma manhã
         Em7                  Bm7
Senti na pele a mão do teu afeto
            F#7                 Bm7   B7
Quando escutei o canto de acauã
         Em7            D7m
A brisa veio feito cana mole
                     F#7
Doce, me roubou um beijo
                Bm7
Flor de querer bem
          Em7                Bm7
Tanta saudade este carinho trouxe
          F#7                 Bm7
Um beijo vale pelo que contém
                   Em7
Tantas vezes eu soltei foguete
      F#7                   Bm7
Imaginando que você já vinha
                  Em7
Ficava cá no meu canto calado
                F#7
Ouvindo a barulheira
                 Bm7    B7
Que a saudade tinha              
         Em7             A7  D7m
Tirei a renda da nafitalina
                   F#7
Forrei cama, cobri mesa
                Bm7   B7
E fiz uma cortina
         Em7               Bm7
Varri a casa com vassoura fina
                F#7
Armei rede na varanda
                  F#7
Enfeitada com bonina
        Bm7                 D7m
Você chegou no amiudar do dia
          A7                  D7m
Eu nunca mais senti tanta alegria
          Bm7              Em7
Se eu soubesse soltava foguete
                F#7
Acendia uma fogueira
                     Bm7  Em7
E enchia o céu de balão
                  Bm7                   F#7
Nosso amor é tão bonito, tão sincero
                    Bm7     Bm7
Feito festa de São João

         Bm7                                  Em7
E|----------------x------------------x-----------------x----------|
B|----------7--7--x----7--7----7--7--x-----7-----8--8--x-----8----|
G|----------7--7--x----7--7----7--7--x-----7-----7--7--x-----7----|
D|----------7--7--x----7--7----7--7--x-----7-----9--9--x-----9----|
A|----------------x------------------x--------7--------x--7-------|
E|-5--6--7--------x--7-------7-------x--7--------------x----------|

                     F#7               Bm7
E|----------x-----------------x-----------------x-----------------|
B|----8--8--x-----8-----7--7--x-----7-----7--7--x-----7-----------|
G|----7--7--x-----7-----9--9--x-----9-----7--7--x-----7-----------|
D|----9--9--x-----9-----8--8--x-----8-----7--7--x-----7-----------|
A|-7--------x--7-----9--------x--9--------------x-----------------|
E|----------x-----------------x--------7--------x--7--------------|

   Em7                                 F#7              Bm7   B7
E|----7--7--x-----7-----7--7--x-----7-----------x-----------------|
B|----8--8--x-----8-----8--8--x-----8-----2--2--x----2-----7--7--7|
G|----7--7--x-----7-----7--7--x-----7-----3--3--x----3-----7--8--8|
D|----------x-----------------x-----------2--2--x----2-----7--7--7|
A|-7--------x--7-----7--------x--7--------------x-----------------|
E|----------x-----------------x--------2--------x--2----7---------|

   Em7   A7    D7m               F#7
E|----------------------x-----------------x-----------------------|
B|----8-----5-----7--7--x-----7-----2--2--x-----2-----------------|
G|----7-----6-----6--6--x-----6-----3--3--x-----3-----------------|
D|----9-----5-----7--7--x-----7-----2--2--x-----2-----------------|
A|-7-----------5--------x--5--------------x-----------------------|
E|-------5--------------x--------2--------x--2--------------------|

   Bm7                     Em7               Bm7
E|----------------------------------x-----------------x-----------|
B|----------------------------8--8--x-----8-----7--7--x-----7-----|
G|----------------------------7--7--x-----7-----7--7--x-----7-----|
D|----4-----4-----4-----4-----9--9--x-----9-----7--7--x-----7-----|
A|-2-----5-----4-----6-----7--------x--7--------------x-----------|
E|----------------------------------x--------7--------x--7--------|

   F#7               Bm7   B7    Em7               D7m
E|----------x-----------------------------x-----------------x------|
B|----2--2--x-----2-----7--7--7-----8--8--x-----8-----7--7--x----7-|
G|----3--3--x-----3-----7--8--8-----7--7--x-----7-----6--6--x----6-|
D|----2--2--x-----2-----7--7--7-----9--9--x-----9-----7--7--x----7-|
A|----------x--------------------7--------x--7-----5--------x--5---|
E|-2--------x--2-----7--------------------x-----------------x------|

   F#7               Bm7                     Em7
E|----------x-----------------------------------------x-----------|
B|----2--2--x-----2-----------------------------8--8--x-----8-----|
G|----3--3--x-----3-----------------------------7--7--x-----7-----|
D|----2--2--x-----2-----4-----4-----4-----4-----9--9--x-----9-----|
A|----------x--------2-----5-----4-----6-----7--------x--7--------|
E|-2--------x--2--------------------------------------x-----------|

   Bm7               F#7  Bm7  Em7
E|----------x---------------------------x-----------------x--------|
B|----7--7--x-----7--2----7-------8--8--x-----8-----8--8--x-----8--|
G|----7--7--x-----7--3----7-------7--7--x-----7-----7--7--x-----7--|
D|----7--7--x-----7--2----7-------9--9--x-----9-----9--9--x-----9--|
A|----------x------------------7--------x--7-----7--------x--7-----|
E|-7--------x--7-----2----7-------------x-----------------x--------|

   F#7               Bm7               Em7
E|----------x-----------------x-----------7--7--x-----7------------|
B|----7--7--x-----7-----7--7--x-----7-----8--8--x-----8------------|
G|----9--9--x-----9-----7--7--x-----7-----7--7--x-----7------------|
D|----8--8--x-----8-----7--7--x-----7-----------x------------------|
A|-9--------x--9--------------x--------7--------x--7---------------|
E|----------x--------7--------x--7--------------x------------------|

                     F#7               Bm7   B7    Em7      A7
E|----7--7--x-----7-----------x------------------------------------|
B|----8--8--x-----8-----7--7--x-----7-----7--7--7-----8--8-----5--5|
G|----7--7--x-----7-----9--9--x-----9-----7--8--8-----7--7-----6--6|
D|----------x-----------8--8--x-----8-----7--7--7-----9--9-----5--5|
A|-7--------x--7-----9--------x--9-----------------7---------------|
E|----------------------------x--------7--------------------5------|

   D7m               Fm7               Bm7   B7    Em7
E|----------x-----------------x-----------------------------x------|
B|----7--7--x-----7-----2--2--x-----2-----3--4--4-----8--8--x-----8|
G|----6--6--x-----6-----3--3--x-----3-----2--2--2-----7--7--x-----7|
D|----7--7--x-----7-----2--2--x-----2-----4--4--4-----9--9--x-----9|
A|-5--------x--5--------------x--------2-----------7--------x--7---|
E|----------x--------2--------x--2--------------------------x------|

   Bm7               Fm7
E|----------x-----------------x----------------x-------------------|
B|----7--7--x-----7-----2--2--x----2-----2--2--x-----2-------------|
G|----7--7--x-----7-----3--3--x----3-----3--3--x-----3-------------|
D|----7--7--x-----7-----2--2--x----2-----2--2--x-----2-------------|
A|----------x-----------------x----------------x-------------------|
E|-7--------x--7-----2--------x--2----2--------x--2----------------|

   Em7               D7m               A7
E|----------x-----------------x-----------------x-----------------|
B|----8--8--x-----8-----7--7--x-----7-----5--5--x-----5-----------|
G|----7--7--x-----7-----6--6--x-----6-----6--6--x-----6-----------|
D|----9--9--x-----9-----7--7--x-----7-----5--5--x-----5-----------|
A|-7--------x--7-----5--------x--5--------------x-----------------|
E|----------x-----------------x--------5--------x--5--------------|

   D7m               Bm7                Em7
E|----5--5--x-----5-----------x------------7--7--x-----7----------|
B|----7--7--x-----7-----7--7--x-----7------8--8--x-----8----------|
G|----6--6--x-----6-----7--7--x-----7------7--7--x-----7----------|
D|----------x-----------7--7--x-----7------------x----------------|
A|-5--------x--5--------------x--------/7--------x--7-------------|
E|----------x--------7--------x--7---------------x----------------|

   Fm7               Bm7                     Em7
E|----------x-----------------------------------x-----------------|
B|----2--2--x-----2--------------------------8--x-----------------|
G|----3--3--x-----3--------------------------7--x-----------------|
D|----2--2--x-----2-----4-----4-----4-----4--9--x-----------------|
A|----------x--------2-----5-----4-----6-----7--x-----------------|
E|-2--------x--2--------------------------------x-----------------|

   Bm7               Fm7  Bm7        Bm7
E|----------x--------------------7-------------------------------|
B|----7--7--x-----7--2--------3------7----------------------------|
G|----7--7--x-----7--3---------------7----------------------------|
D|----7--7--x-----7--2-----4---------7----------------------------|
A|----------x-----------2-----------------------------------------|
E|-7--------x--7-----2---------------7----------------------------|
Colaboração e revisão:
  • Washington Costa
6.202 exibições
    • ½ Tom
    • A
    • Bb
    • B
    • C
    • Db
    • D
    • Eb
    • E
    • F
    • F#
    • G
    • Ab
  • Adicionar à lista

    0 comentários

    Ver todos os comentários

    Conseguiu tocar?

    5 Tocaram 0 Ainda não

    Grave um vídeo tocando Foguete e nos envie!

    00:00 / 00:00
    outros vídeos desta música
    repetir qualidade Automático
    Outros vídeos desta música
    00:00 / 00:00
    Automático

    Cifra Club Pro

    Aproveite o Cifra Club com benefícios exclusivos e sem anúncios
    Cifra Club Pro
    Aproveite o Cifra Club com benefícios exclusivos e sem anúncios
    OK