Cifra Club

Partilhar

Rubel

Cifra: Sofar (violão e guitarra)
Selo Cifra Club: esta cifra foi revisada para atender aos critérios oficiais da nossa Equipe de Qualidade.
tom: C#m
[Intro]

    E       E9/F#  F#m7       Ebm9-
E|--------------4------2----------------|
B|-------0----5-------2----2-----5----4-|
G|----1--------------2----2-----4----4--|
D|--2-------4------------2-----4----4---|
A|----------------------------6----6----|
E|-----------------2--------------------|

    C#m7/G#
E|---------------11-9---------------|
B|----9---------------9-------------|
G|---9------------------------------|
D|--9---9----9----------------------|
A|--------11-----11-----------------|
E|----------------------------------|

    B6/F#                  A6/E
E|----------------9-------------------|
B|-----9------------9---------7-------|
G|----8---------------8------6----6---|
D|---9----9--9------9-------7---7-----|
A|--9-------9-----9----9---7----------|
E|------------------------------------|

      C#4       E
E|-----------------------|
B|------4----------5-----|
G|-----2----2-----4--4---|
D|----4---4------6-----0-|
A|---4-------------------|
E|--------------0--------|

    Bbm7         A6          C#m7
E|----------------------------------11---9---|
B|-----5------------5-------------9--------9-|
G|----6--6-5-6-----6--6-4-6------9-----9-----|
D|---6------------4---4-4-4-----9------------|
A|-------------------------------------------|
E|--6------------5-----------9---------------|

    C#m/F#        F#m6         Ebm9-
E|------12-11-9------7-9-----------------|
B|-----9------------7------9------7-5----|
G|----9----9--9----8------8------4----8--|
D|-----------------------7------4---4-4--|
A|--9------9--9---9------------6----6-6--|
E|---------------------------------------|

    A6             G#m11     Ebm9-  F#m11
E|------2-4-2---2----------------------5-4---|
B|-----2------2-------2-2/4--5--7-----5------|
G|----2--------------4-------4--4----4-------|
D|------------------4--------4--4------------|
A|--0------------------------6------4--------|
E|-----------------4-------------------------|

    Ebm9-   E11/A
E|----------------|
B|-----5-------5--|
G|----4--6----4---|
D|---4-------6----|
A|--6-------0-----|
E|----------------|


[Primeira Parte]

    F#m7       A      E6       
E|--2--2-------2--2---0-0-0-0--------------|
B|--2--2-------2--2---0-0-0-0--9-----------|
G|--2--2-------2--2---6-6-6-6--7-----------|
D|--2--2-------2--2---6-6-6-6--9-----------|
A|--4--4-------0--0---7-7-7-7--8-----------|
E|--2--2---4-------------------------------|

                   F#m7
Se for preciso, eu pego um barco, eu remo
         A                        E6
Por seis meses, como peixe pra te ver
                    F#m7
Tão pra inventar um mar grande o bastante
       A                               E6
Que me assuste e que eu desista de você

                 F#m7
Se for preciso, eu crio alguma máquina
     A                         E6
Mais rápida que a dúvida, mais súbita que a lágrima
                          F#m7
Viajo a toda força, e num instante de saudade e dor
   A                             E6
Eu chego pra dizer que eu vim te ver


[Refrão]

                  F#m7
Eu quero partilhar
                  A
Eu quero partilhar
                   E6
A vida boa com você
                  F#m7
Eu quero partilhar
                  A
Eu quero partilhar
                   E6
A vida boa com você


    F#m7   A      E6
E|--2--2-----4--4---7-7-7-7--------------|
B|--2--2-----2--2---0-0-0-0--------------|
G|--2--2-----2--2---6-6-6-6--------------|
D|--2--2-----2--2---6-6-6-6--------------|
A|--4--4-----0--0---7-7-7-7--------------|
E|--2--2--4------------------------------|

[Segunda Parte]

        ​F#m7                    A
Que amor tão grande tem que ser vivido a todo instante
        ​E6
E a cada hora que eu tô longe, é um desperdício
    ​           F#m7
Eu só tenho 80 anos pela frente
      ​A                            E6
Por favor, me dá uma chance de viver

[Refrão]

                  F#m7
Eu quero partilhar
                  A
Eu quero partilhar
                   E6
A vida boa com você
                  F#m7
Eu quero partilhar
                  A
Eu quero partilhar
                   E6
A vida boa com você

[Primeira Parte]

                   F#m7
Se for preciso, eu pego um barco, eu remo
         A                        E6
Por seis meses, como peixe pra te ver
                    F#m7
Tão pra inventar um mar grande o bastante
       A                               E6
Que me assuste e que eu desista de você

                 F#m7
Se for preciso, eu crio alguma máquina
     A                         E6
Mais rápida que a dúvida, mais súbita que a lágrima
                          F#m7
Viajo a toda força, e num instante de saudade
   A                             E6
Eu chego pra dizer que eu vim te ver

[Refrão]

                  F#m7
Eu quero partilhar
                  A
Eu quero partilhar
                   E6
A vida boa com você

[Ponte]

    F#m7       G#m7    A
Não tem, pra trás, nada
B7     C#m7  B9/Eb  E6
Tudo que ficou tá   aqui


    F#m7 G#m7 A    B7    C#m7  B9/Eb  E6
E|--2----4----x----------------------------|
B|--2----4----5----7---------9----12----7--|
G|--2----4----6---------8----9----11----8--|
D|--2----4----6----7----7----9----11----6--|
A|--4----6----x---------9---------------7--|
E|--2----4----5----7----8----9----11-------|

( F#m7  G#m7  A  B7 )
(   C#m7  B/Eb  E6   )
(   C#m7  B/Eb  E6   )
(   C#m7  B/Eb  E6   )

    F#m7 G#m7 A    B7    C#m7  B9/Eb  E6   
E|--2----4--------------------------------------|
B|--2----4----5----7---------9----12----7----9--|
G|--2----4----6---------8----9----11----8----7--|
D|--2----4----6----7----7----9----11----6----9--|
A|--4----6----x---------9---------------7----8--|
E|--2----4----5----7----8----9----11------------|

[Refrão]

                  F#m7
Eu quero partilhar
                  A
Eu quero partilhar
                   E6
A vida boa com você
                  F#m7
Eu quero partilhar
                  A
Eu quero partilhar
                   E6
A vida boa com você
Outros vídeos desta música
    11.872 exibições
      • ½ Tom
      • Am
      • Bbm
      • Bm
      • Cm
      • C#m
      • Dm
      • Ebm
      • Em
      • Fm
      • F#m
      • Gm
      • G#m
    • Adicionar à lista

    Afinação da cifra

    Afinador online

      0 comentários

      Ver todos os comentários

      Entre para o Cifra Club PRO

      Tenha acesso a benefícios exclusivos no App e no Site

      • Chega de anúncios

      • Badges exclusivas

      • Mais recursos no app do Afinador

      • Atendimento Prioritário

      • Aumente seu limite de lista

      • Ajude a produzir mais conteúdo

      Cifra Club Pro

      Aproveite o Cifra Club com benefícios exclusivos e sem anúncios
      Cifra Club Pro
      Aproveite o Cifra Club com benefícios exclusivos e sem anúncios
      Ops (: Contenido disponible sólo en portugués.
      OK