Cifra Club

Aprenda

Quadro Verde

Rubel

Cifra: Principal (violão e guitarra)
tom: G
INTRO:
E|-----------5------5------------------------|
B|---7----7-----7-------7---5-------5---7----|
G|---7-----7---------------------7----------7|
D|------------------------------0-0---0------|
A|-------------------------------------------|
D|-0---0-----0----------------0--------------|

E|-----------5------5--------7---10---7------------7------5---------3---------2-------|
B|---7---7------7-------7---7---------7---10----------0-----0---0-----0---0-----0--0--|
G|---7---------------------7---7----------7----------0-0-------0-0-------0-0------0-0-|
D|------0-0---------------------------------------------------------------------------|
A|------------------------------------------------------------------------------------|
D|-0-----------------------0------------0--------5-5------5---------5---------5-------|

D
Daqui de dentro o sol é pouco
Eu berro
Pinturas velhas não renovam mais
    G
Meu ar

D
Vem me acalma
Traz os discos
Fica

O que eu preciso é me esquecer
          G
Me conta mais de você

D
Esse sorriso é grande ajuda
Fica
Estende o braço e me aponta
             G
Pra onde eu vou

D
Mentira nada
Eu adorava quando
A luz entrava pra chamar
       G
Sua a atenção

           Em
Eu sei porque
           G
Eu fiz assim
           D
Eu tive medo de você
           Em
Não vai deixar
           G
Que perca o pouco
           D
Que te prende aqui dentro
           Em
As cores vão
          G
Se espalhar
          D
Eu vou viver enquanto houver
Em     G                        D
Um vestígio dos quadros que eu fiz

E|--2------7--5--0--3--2--2---|
B|--0------0--0--0--0--0--0---|
G|--2------7--5--0--3--2--2---|
D|--0------0--0--0--0--0--0---|
A|----------------------------|
D|----------------------------|

D                Gm       D
Esquece a tinta e os pincéis
D          Gm        D
Não precisamos esconder
D
Vem
       Gm           D
Me abraça forte e diz
D            Gm            D
Tudo que eu sempre quis dizer

G
Em suas coxas me prendeu
                     D
Em seus seios me sorriu

G
Só assim pude entender
                       D
Só assim que eu te escrevi

           Em
Eu sei porque
           G
Eu fiz assim
           D
Eu tive medo de você
           Em
Não vai deixar
           G
Que perca o pouco
           D
Que te prende aqui dentro
           Em
As cores vão
          G
Se espalhar
          D
Eu vou viver enquanto houver
Em     G                        D
Um vestígio dos quadros que eu fiz

FINAL:  D  D/E  D/F#  G (x4)
Composição de Rubel
Colaboração e revisão:
  • Marcella Rocha
  • fabio Fabian
  • Rubel Rodrigues
66.045 exibições
    • ½ Tom
    • A
    • Bb
    • B
    • C
    • Db
    • D
    • Eb
    • E
    • F
    • F#
    • G
    • Ab
  • Adicionar à lista

    0 comentários

    Ver todos os comentários

    Conseguiu tocar?

    35 Tocaram 8 Ainda não

    Grave um vídeo tocando Quadro Verde e nos envie!

    00:00 / 00:00
    outros vídeos desta música
    repetir qualidade Automático
    Outros vídeos desta música
    00:00 / 00:00
    Automático

    Cifra Club Pro

    Aproveite o Cifra Club com benefícios exclusivos e sem anúncios
    Cifra Club Pro
    Aproveite o Cifra Club com benefícios exclusivos e sem anúncios
    OK