Cifra Club

Above me

Rufio

Cifra: Principal (violão e guitarra)
tom: Bb
Above Me - Rufio

GUITAR 1'S PARTS:
Intro:  (6x)  (THIS IS SOME FAST ACTION!)
e|---------------------------------------------------------------------------|
B|---------------------------------------------------------------------------|
G|----10-----9---10-----10-----9---10-------10----12----10----10----10----9--|
D|7-7----7-7---7----8-8----8-8---8----12-12----12----12----10----10----10----|
A|---------------------------------------------------------------------------|
E|---------------------------------------------------------------------------|
  ...    ...   .    ...    ...   .    .....    ..    ..    ..    ..    ..

Intro Cont'd:
e|---------|
B|---------|
G|---9-----|
D|10-------|
A|---------|
E|---------|

Intro Cont'd:  (Right before verse)
e|---------------------------------------------------------------------------|
B|---------------------------------------------------------------------------|
G|---------------------------------------------------------------------------|
D|8-8-8-8-8-8-8-8-8-8-8-8x---------------------------------------------------|
A|8-8-8-8-8-8-8-8-8-8-8-8x-10/12-10-8-10-8-7-8-7-----------------------------|
E|6-6-6-6-6-6-6-6-6-6-6-6x-----------------------8---------------------------|

Verse:  Guitar 1  "If I were to walk..."  (2x)
e|---------------------------------------------------------------------------|
B|---------------------------------------------------------------------------|
G|7-7-7-7-7-7-7-7---------------------------10---------------10--------------|
D|7-7-7-7-7-7-7-7-8-8-8-8-8-8-8-8------10---10---10-----10---10---10-10-10-10|
A|5-5-5-5-5-5-5-5-8-8-8-8-8-8-8-8-------8---------8------8---------8-10-10-10|
E|----------------6-6-6-6-6-6-6-6--8-8----8----8----8-8----8----8-----8--8--8|
                                 ...    .    .    ...    .    .
Verse Cont'd:
e|---------------------------------------------------------------------------|
B|---------------------------------------------------------------------------|
G|---------------------------------------------------------------------------|
D|10-10-10-10-10-------------------------------------------------------------|
A|10-10-10-10-10-------------------------------------------------------------|
E|-8--8--8--8--8-------------------------------------------------------------|\

Verse Cont'd:  "You showed me life and..."
e|---------------------------------------------------------------------------|
B|---------------------------------------------------------------------------|
G|----------------10-10-10-10-10-10-10-10-10-10----------------10-10-10-9----|
D|-----------------8--8--8--8--8--7--7--7--7--7-8-7-8-8/10-8-7--x--x--x-x----|
A|8-7-8-8/10-8-7------------------------------------------------8--8--8-7----|
E|---------------------------------------------------------------------------|

Verse Cont'd:
e|---------------------------------------------------------------------------|
B|---------------------------------------------------------------------------|
G|5-5-5-5-5-5---------------------------------10-10-10-9-5-5-5-5-5-5---------|
D|x-x-x-x-x-x----------------------------------x--x--x-x-x-x-x-x-x-x---------|
A|3-3-3-3-3-3-8-----8-----8---8-----8-----8----8--8--8-7-3-3-3-3-3-3---------|
E|--------------5-5---5-5---5---6-6---6-6---6--------------------------------|
                ...   ...   .   ...   ...   .
Verse Cont'd:
e|---------------------------------------------------------------------------|
B|---------------------------------------------------------------------------|
G|--------------------------------10-10-10-10-9-5-5-5-5-5-5------------------|
D|---------------------------------x--x--x--x-x-x-x-x-x-x-x------------------|
A|8-----8-----8---8-----8-----8----8--8--8--8-7-3-3-3-3-3-3------------------|
E|--5-5---5-5---5---6-6---6-6---6--------------------------------------------|
    ...   ...   .   ...   ...   .
Chorus: 
e|---------------------------------------------------------------------------|
B|---------------------------------------------------------------------------|
G|3-3-3-3-3-3-3-3-5-5-5-5-5-5-5-5-7-7-7-7-7-7-7-7-2-2-2-2-2-2-2-2------------|
D|3-3-3-3-3-3-3-3-5-5-5-5-5-5-5-5-7-7-7-7-7-7-7-7-2-2-2-2-2-2-2-2------------|
A|1-1-1-1-1-1-1-1-3-3-3-3-3-3-3-3-5-5-5-5-5-5-5-5-0-0-0-0-0-0-0-0------------|
E|---------------------------------------------------------------------------|
  When I..........stars, they.....eyes............bright with....
  Tonight, yet....above me and....fly.............above me.......

Chorus Cont'd:  Guitar 1
e|---------------------------------------------------------------------------|
B|---------------------------------------------------------------------------|
G|3-3-3-3-3-3-3-3-5-5-5-5-5-5-5-5~-------------------------------------------|
D|3-3-3-3-3-3-3-3-5-5-5-5-5-5-5-5~-------------------------------------------|
A|1-1-1-1-1-1-1-1-3-3-3-3-3-3-3-3~-------------------------------------------|
E|---------------------------------------------------------------------------|
  be with.........with.


Chorus Cont'd:  Repeat Intro (2x)

Bridge:  Guitar 1  "To look at the mountains..."   (2x)
e|---------------------------------------------------------------------------|
B|---------------------------------------------------------------------------|
G|3-3-3-3-3-3-7-7-7-7-7-7-------------3-3-3-5-5-5-3-3-3-3-3-3-3-3-5-5-5-5-5-5|
D|3-3-3-3-3-3-7-7-7-7-7-7-7-7-7-7-7-7-3-3-3-5-5-5-3-3-3-3-3-3-3-3-5-5-5-5-5-5|
A|1-1-1-1-1-1-5-5-5-5-5-5-7-7-7-7-7-7-1-1-1-3-3-3-1-1-1-1-1-1-1-1-3-3-3-3-3-3|
E|------------------------5-5-5-5-5-5----------------------------------------|

Repeat Verse
Repeat Chorus
Repeat Intro:  (2x)

Outro:  (2x)
e|---------------------------------------------------------------------------|
B|---------------------------------------------------------------------------|
G|10-10x--10-10x--10-10-10-10-10--9--9--9-9h10p9-----------------------------|
D|-7--7x---8--8x--12-12-12-12-12-10-10-10--------10--------------------------|
A|---------------------------------------------------------------------------|
E|---------------------------------------------------------------------------|

Outro Cont'd:
e|---------------------------------------------------------------------------|
B|---------------------------------------------------------------------------|
G|10-10-10-10-10-10-10-10-10-10-10-10-10-10-10-10--9--9--9-9h10p9------------|
D|-7--7--7--7--7--8--8--8--8--8--8-12-12-12-12-12-10-10-10--------10---------|
A|---------------------------------------------------------------------------|
E|---------------------------------------------------------------------------|

Outro Cont'd:
e|---------------------------------------------------------------------------|
B|---------------------------------------------------------------------------|
G|10-10-10-10-10-10-10-10-10-10-10-10-10-10-10-10--9--9--9-9h10p9------------|
D|-7--7--7--7--7--8--8--8--8--8--8-12-12-12-12-12-10-10-10--------10-3~--3x--|
A|-------------------------------------------------------------------3~--3x--|
E|-------------------------------------------------------------------1~--1x--|










GUITAR 2'S PARTS:

Intro:  (2x)
e|---------------------------------------------------------------------------|
B|---------------------------------------------------------------------------|
G|--------------------7-7-7-7-7-5-5-5-5-5------------------------------------|
D|7-7-7-7-7-8-8-8-8-8-7-7-7-7-7-5-5-5-5-5------------------------------------|
A|7-7-7-7-7-8-8-8-8-8-5-5-5-5-5-3-3-3-3-3------------------------------------|
E|5-5-5-5-5-6-6-6-6-6--------------------------------------------------------|

Intro Cont'd:  (2x)
e|---------------------------------------------------------------------------|
B|---------------------------------------------------------------------------|
G|---------------------------------------------------------------------------|
D|---------------------------------------------------------------------------|
A|----8-----7---8-----8-----7---8-------8----10----8---8---8---7---7---------|
E|5-5---5-5---5---6-6---6-6---6---10-10---10----10---8---8---8---8-----------|
  ...   ...   .   ...   ...   .   .....   ..    ..   .   .   .   .
Intro Cont'd:
e|---------------------------------------------------------------------------|
B|---------------------------------------------------------------------------|
G|10-10-10-10-10-12-12-12-14-------------------------------------------------|
D|-x--x--x--x--x--x--x--x--x-8/10-8-7-8-7-5-7-5------------------------------|
A|-8--8--8--8--8-10-10-10-12--------------------8----------------------------|
E|---------------------------------------------------------------------------|

Verse:  "If I were to walk..."
e|---------------------------------------------------------------------------|
B|---------------------------------------------------------------------------|
G|14-14-14-14-14-14-14-14-10-10/9-10-14-14-14-15-14-10\---9-9-9-10-10-10-----|
D|-x--x--x--x--x--x--x--x--x--x-x--x--x--x--x--x--x--x----x-x-x--x--x--x-----|
A|12-12-12-12-12-12-12-12--8--8/7--8-12-12-12-13-12--8\---7-7-7--8--8--8-----|
E|---------------------------------------------------------------------------|

Verse Cont'd:
e|---------------------------------------------------------------------------|
B|---------------------------------------------------------------------------|
G|12-12-10-9-14-14-14-14-14-14-14-14-10-10/9-10-14-14-14-15-14-10\-----------|
D|-x--x--x-x--x--x--x--x--x--x--x--x--x--x-x--x--x--x--x--x--x--x------------|
A|10-10--8-7-12-12-12-12-12-12-12-12--8--8/7--8-12-12-12-13-12--8\-----------|
E|---------------------------------------------------------------------------|

Verse Cont'd:  "You showed me life and..."
e|---------------------------------------------------------------------------|
B|---------------------------------------------------------------------------|
G|9-9-9-10-10-10-12-12-10-9---------------10-10-10-10-10-10-10-10-10-10-10-10|
D|x-x-x--x--x--x--x--x--x-x-7-5-7-7/8-7-5--8--8--8--8--8--8--7--7--7--7--7--7|
A|7-7-7--8--8--8-10-10--8-7--------------------------------------------------|
E|---------------------------------------------------------------------------|

Verse Cont'd:
e|---------------------------------------------------------------------------|
B|11-10-11-10h11p10----------------------------------------------------------|
G|------------------10-10-10-10-12-9-9-9-10-9-10-----10-----10---10-----10---|
D|----------------------x--x--x--x-x-x-x--x-x----7-7----7-7----7----8-8------|
A|----------------------8--8--8-10-7-7-7--8-7--------------------------------|
E|---------------------------------------------------------------------------|
                                  ...    ...    .    ...
Verse Cont'd:
e|---------------------------------------------------------------------------|
B|---------------------------------------------------------------------------|
G|----10---10-10-10-12-9-9-9-10-9-10-----10-----10---10-----10-----10--------|
D|8-8----8--x--x--x--x-x-x-x--x-x----7-7----7-7----7----8-8----8-8----8------|
A|----------8--8--8-10-7-7-7--8-7--------------------------------------------|
E|---------------------------------------------------------------------------|
  ...    .                           ...    ...    .    ...    ...    .
Verse Cont'd:
e|---------------------------------------------------------------------------|
B|---------------------------------------------------------------------------|
G|10-10-10-12-9-9-9-10-9-----------------------------------------------------|
D|-x--x--x--x-x-x-x--x-x-----------------------------------------------------|
A|-8--8--8-10-7-7-7--8-7-----------------------------------------------------|
E|---------------------------------------------------------------------------|

Chorus:  "When I look at the stars..."  (Played lots of times)
e|---------------------------------------------------------------------------|
B|10----10-11-10----10----10-13-11-10----------------------------------------|
G|---10----------10----10----------------------------------------------------|
D|---------------------------------------------------------------------------|
A|---------------------------------------------------------------------------|
E|---------------------------------------------------------------------------|

Chorus Cont'd:  (2x)
e|---------------------------------------------------------------------------|
B|---------------------------------------------------------------------------|
G|---------------------------------------------------------------------------|
D|---------------------------------------------------------------------------|
A|----8-----7---8-----8-----7---8-------8----10----8---8---8---7---7---------|
E|5-5---5-5---5---6-6---6-6---6---10-10---10----10---8---8---8---8-----------|
  PM.   ...   .   ...   ...   .   .....   ..    ..   .   .   .   .

Bridge:  "To look at the mountains..."
e|---------------------------------------------------------------------------|
B|10-8----13-11-10--10-8-----------------------------------------------------|
G|-----10-10-10-10-------10-10-10-10-12-12-12-10-10-10-10-10-10-9-9-9-9-9-9--|
D|---------------------------x--x--x--x--x--x--x--x--x--x--x--x-x-x-x-x-x-x--|
A|---------------------------8--8--8-10-10-10--8--8--8--8--8--8-7-7-7-7-7-7--|
E|---------------------------------------------------------------------------|

Bridge Cont'd:
e|---------------------------------------------------------------------------|
B|10-8----13-11-10--10-8-----------------------------------------------------|
G|-----10-10-10-10-------10-10-10-10-12-12-12-10-10-10-10-10-10-10----10-----|
D|---------------------------x--x--x--x--x--x--x--x--x--x--x--x----10----10--|
A|---------------------------8--8--8-10-10-10--8--8--8--8--8--8--------------|
E|---------------------------------------------------------------------------|
                                                           ..    ..
Bridge Cont'd:
e|---------------------------------------------------------------------------|
B|---------------------------------------------------------------------------|
G|10----10----9x-------------------------------------------------------------|
D|---10----10----------------------------------------------------------------|
A|---------------------------------------------------------------------------|
E|---------------------------------------------------------------------------|
     ..    ..

Repeat Verse
Repeat Chorus

Outro:  Guitar 2
e|---------------------------------------------------------------------------|
B|---------------------------------------------------------------------------|
G|------------7-7-7-7-7-5-5-5-5-5-5------------7-7-7-7-7-5-5-5-5-5-5---------|
D|7-7x--8-8x--7-7-7-7-7-5-5-5-5-5-5-7-7x--8-8x-7-7-7-7-7-5-5-5-5-5-5---------|
A|7-7x--8-8x--5-5-5-5-5-3-3-3-3-3-3-7-7x--8-8x-5-5-5-5-5-3-3-3-3-3-3---------|
E|5-5x--6-6x------------------------5-5x--6-6x-------------------------------|

Outro Cont'd:
e|---------------------------------------------------------------------------|
B|---------------------------------------------------------------------------|
G|--------------------7-7-7-7-7-5-5-5-5-5-5---------------------7-7-7-7-7----|
D|7-7-x-7-8-8-8-x-8-8-7-7-7-7-7-5-5-5-5-5-5-7-7-x-7-8-8-8-x-8-8-7-7-7-7-7----|
A|7-7-x-7-8-8-8-x-8-8-5-5-5-5-5-3-3-3-3-3-3-7-7-x-7-8-8-8-x-8-8-5-5-5-5-5----|
E|5-5-x-5-6-6-6-x-6-6-----------------------5-5-x-5-6-6-6-x-6-6--------------|
Outro Cont'd:
e|---------------------------------------------------------------------------|
B|---------------------------------------------------------------------------|
G|5-5-5-5-5-5-10~--10\-------------------------------------------------------|
D|5-5-5-5-5-5--x----x--------------------------------------------------------|
A|3-3-3-3-3-3--8~---8\-------------------------------------------------------|
E|----------------------------------------------------
Composição de Rufio
Colaboração e revisão:
  • Vinicius Nicola
37.437 exibições
    • ½ Tom
    • A
    • Bb
    • B
    • C
    • Db
    • D
    • Eb
    • E
    • F
    • F#
    • G
    • Ab
  • Adicionar à lista

    0 comentários

    Ver todos os comentários

    Conseguiu tocar?

    0 Tocaram 0 Ainda não

    Grave um vídeo tocando Above me e nos envie!

    00:00 / 00:00
    Outros vídeos desta música
    Repetir Qualidade Automático
    Outros vídeos desta música
    00:00 / 00:00
    Automático

    Cifra Club Pro

    Aproveite o Cifra Club com benefícios exclusivos e sem anúncios
    Cifra Club Pro
    Aproveite o Cifra Club com benefícios exclusivos e sem anúncios
    OK