Cifra Club

Face the truth

Rufio

Cifra: Principal (violão e guitarra)
Selo Cifra Club: esta cifra foi revisada para atender aos critérios oficiais da nossa Equipe de Qualidade.
tom: C
Intro:
|----------------------------------------|
|----------------------------------------|
|--------0-------0------0------0---------|
|-----2--------0------0------0---0-------|
|-----------2-------3------5-------------|
|--0-------------------------------------|

|-----------------------------------------|
|----------------------------------0------|
|--------0-------0------0------0----0-----|
|-----2--------0------0-------------------|
|-----------2-------3------5--------------|
|--0--------------------------------------|

Verso:
|------2--222------------|
|------2--222------------|
|--2---0--000------------| 4x
|--0---0--222------------|
|--0---2-333-------------|
|--2---3-----------------|

Refrão:
|-------222--222--2222------------|
|-------222--222--3333------------|
|-------000--000--2222------------| 4x
|--222--222--000--0000------------|
|--222--333--222------------------|
|--000-------333------------------|

Intro

Verso (4x)

Refrão:
|----------------------------|
|----------------------------|
|-------555-------7777-------|
|--222--555--555--7777-------|
|--222--333--555--5555-------|
|--000-------333-------------|
Outros vídeos desta música
    6.501 exibições
      • ½ Tom
      • A
      • Bb
      • B
      • C
      • Db
      • D
      • Eb
      • E
      • F
      • F#
      • G
      • Ab
    • Adicionar à lista

    Afinação da cifra

    Afinador online

      0 comentários

      Ver todos os comentários

      Entre para o Cifra Club PRO

      Tenha acesso a benefícios exclusivos no App e no Site

      • Chega de anúncios

      • Mais recursos no app do Afinador

      • Atendimento Prioritário

      • Aumente seu limite de lista

      • Ajude a produzir mais conteúdo

      Cifra Club Pro

      Aproveite o Cifra Club com benefícios exclusivos e sem anúncios
      Cifra Club Pro
      Aproveite o Cifra Club com benefícios exclusivos e sem anúncios
      OK