Cifra Club

Just A Memory

Rufio

Cifra: Principal (violão e guitarra)
tom: A
... - abafado
~   - deixar soar
5x  - travar instrumento
/   - deslizar

Guitarra 1 partes:
-----------------
Intro:(2x)
e|---------------------------------------------------------------------------|
B|---------------------------------------------------------------------------|
G|---------------------------------------------------------------------------|
D|4-4-4-4-4-4-7-7-7-7-7-7-7-7-7-7-7-7-7-7-7-7-7-7-4-4-4-4-4-4-7-7-7-7-7-7----|
A|4-4-4-4-4-4-7-7-7-7-7-7-7-7-7-7-7-7-7-7-7-7-7-7-4-4-4-4-4-4-7-7-7-7-7-7----|
E|2-2-2-2-2-2-4-4-4-4-4-4-5-5-5-5-5-5-5-5-5-5-5-5-2-2-2-2-2-2-4-4-4-4-4-4----|
    .........               .........               .........

Intro continuação:
e|---------------------------------------------------------------------------|
B|---------------------------------------------------------------------------|
G|7-7-7-7-7-7-7-7------------------------------------------------------------|
D|7-7-7-7-7-7-7-7------------------------------------------------------------|
A|5-5-5-5-5-5-5-5------------------------------------------------------------|
E|---------------------------------------------------------------------------|

Verso:  "The sadness comes..." (2x)
e|---------------------------------------------------------------------------|
B|---------------------------------------------------------------------------|
G|--------------------------------------------------------7-7-7-7-7-9-9-9-9-9|
D|4-7-7-7-7-7-7-7-7-7-7-7-7-7-7-7-7-7-7-7-7-7-4-4-4-4-4-4-x-x-x-x-x-x-x-x-x-x|
A|4-7-7-7-7-7-7-7-7-7-7-7-7-7-7-7-7-7-7-7-7-7-4-4-4-4-4-4-5-5-5-5-5-7-7-7-7-7|
E|2-4-5-5-5-5-5-5-4-4-4-4-4-4-4-4-4-4-4-4-5-4-2-2-2-2-2-2--------------------|

Verso continuação:  "Just when I thought..."
e|---------------------------------------------------------------------------|
B|---------------------------------------------------------------------------|
G|---------------------------------------------------------------------------|
D|4-4-4-4-4-4-4-4-7-7-7-7-7-7-7-7-7-7-7-7-7-7-7-7----------------------------|
A|4-4-4-4-4-4-4-4-7-7-7-7-7-7-7-7-7-7-7-7-7-7-7-7-7-5-4-5-4------------------|
E|2-2-2-2-2-2-2-2-4-4-4-4-4-4-4-4-5-5-5-5-5-5-5-5-----------5----------------|

Verso continuação:  "My stomach full of..."
e|---------------------------------------------------------------------------|
B|---------------------------------------------------------------------------|
G|---------------------------------------------------------------------------|
D|4-4-4-4-4-4-4-4-7-7-7-7-7-7-7-7-7-7-7-7-7-7-7-7-2~-------------------------|
A|4-4-4-4-4-4-4-4-7-7-7-7-7-7-7-7-7-7-7-7-7-7-7-7-2~-------------------------|
E|2-2-2-2-2-2-2-2-4-4-4-4-4-4-4-4-5-5-5-5-5-5-5-5-0~-------------------------|

Verso continuação:(2x)  "I remember you and me..."
e|---------------------------------------------------------------------------|
B|---------------------------------------------------------------------------|
G|7-7-7-7-7-7-7-6-----------------------------------7-7-7-7-7-9-9-9-9-9------|
D|x-x-x-x-x-x-x-x-7-7-7-7-7-7-7-7-2-4-4-4-4-4-4-4-4-x-x-x-x-x-x-x-x-x-x------|
A|5-5-5-5-5-5-5-4-7-7-7-7-7-7-7-7-2-4-4-4-4-4-4-4-4-5-5-5-5-5-7-7-7-7-7------|
E|----------------5-5-5-5-5-5-5-4-0-2-2-2-2-2-2-2-2--------------------------|

Repetir Intro:

Repetir Verso: The love that I had for you
               Is gone has drifted so far away
               But you're still here
               In my head and you're still here
               You'll never leave my heart

Verso continuação:  "Just when I thought..."
e|---------------------------------------------------------------------------|
B|---------------------------------------------------------------------------|
G|---------------------------------------------------------------------------|
D|4-----------------7-----------------7--------------------------------------|
A|4-4-4-4-4-4-4-4-4-7-7-7-7-7-7-7-7-7-7-7-7-7-7-7-7-7-7-7-5-4-5-4------------|
E|2-2-2-2-2-2-2-2-2-4-4-4-4-4-4-4-4-4-5-5-5-5-5-5-5-5-5-----------5x---------|
    ...............   ...............   ...............

Verso continuação:  "My stomach full of..."
e|---------------------------------------------------------------------------|
B|---------------------------------------------------------------------------|
G|---------------------------------------------------------------------------|
D|4-4-4-4-4-4-4-4-7-7-7-7-7-7-7-7-7-7-7-7-7-7-7-7-2~-------------------------|
A|4-4-4-4-4-4-4-4-7-7-7-7-7-7-7-7-7-7-7-7-7-7-7-7-2~-------------------------|
E|2-2-2-2-2-2-2-2-4-4-4-4-4-4-4-4-5-5-5-5-5-5-5-5-0~-------------------------|

Verso continuação:(2x)  "I remember you and me..."
e|---------------------------------------------------------------------------|
B|---------------------------------------------------------------------------|
G|7-7-7-7-7-7-7-6-----------------------------------7-7-7-7-7-9-9-9-9-9------|
D|x-x-x-x-x-x-x-x-7-7-7-7-7-7-7-7-2-4-4-4-4-4-4-4-4-x-x-x-x-x-x-x-x-x-x------|
A|5-5-5-5-5-5-5-4-7-7-7-7-7-7-7-7-2-4-4-4-4-4-4-4-4-5-5-5-5-5-7-7-7-7-7------|
E|----------------5-5-5-5-5-5-5-4-0-2-2-2-2-2-2-2-2--------------------------|

Refrão:  "So stop me now..."
e|---------------------------------------------------------------------------|
B|---------------------------------------------------------------------------|
G|7-7-7-7-7-7-7-7-7-7--------------------------------------------------------|
D|7-7-7-7-7-7-7-7-7-7-2-2-2-2-2-2-2-2-2-2-7-7-7-7-7-7-7-7-7-7-4-4-4-4-4-2-2-2|
A|5-5-5-5-5-5-5-5-5-5-2-2-2-2-2-2-2-2-2-2-7-7-7-7-7-7-7-7-7-7-4-4-4-4-4-2-2-2|
E|--------------------0-0-0-0-0-0-0-0-0-0-5-5-5-5-5-4-4-4-4-4-2-2-2-2-2-0-0-0|

Refrão continuação:
e|---------------------------------------------------------------------------|
B|---------------------------------------------------------------------------|
G|----7-7-7-7-7-7-7-7-7-7-9-9-9-9-9-9-9-9-9-9--------------------------------|
D|2-2-7-7-7-7-7-7-7-7-7-7-9-9-9-9-9-9-9-9-9-9--------------------------------|
A|2-2-5-5-5-5-5-5-5-5-5-5-7-7-7-7-7-7-7-7-7-7-----7-----7-----7-----7-----4--|
E|0-0-----------------------------------------5-5---5-5---4-4---4-4---2-2----|
                                              ...   ...   ...   ...   ...

Refrão continuação:
e|---------------------------------------------------------------------------|
B|---------------------------------------------------------------------------|
G|------------------7-7-7-7-7-7-7-7-7-7-9~-----------------------------------|
D|------------------7-7-7-7-7-7-7-7-7-7-9~-----------------------------------|
A|----4-----2-----2-5-5-5-5-5-5-5-5-5-5-7~-----------------------------------|
E|2-2---0-0---0-0------------------------------------------------------------|
  ...   ...   ...

Outro:
e|---------------------------------------------------------------------------|
B|---------------------------------------------------------------------------|
G|---------------------------------------------------------------------------|
D|4-4-4-4-4-4-7-7-7-7-7-7-7-7-7-7-7-7-7-7-7-7-7-7-4-4-4-4-4-4-7-7-7-7-7-7----|
A|4-4-4-4-4-4-7-7-7-7-7-7-7-7-7-7-7-7-7-7-7-7-7-7-4-4-4-4-4-4-7-7-7-7-7-7----|
E|2-2-2-2-2-2-4-4-4-4-4-4-5-5-5-5-5-5-5-5-5-5-5-5-2-2-2-2-2-2-4-4-4-4-4-4----|
    .........               .........               .........

Outro continuação:  "Cuz I don't want to be..."
e|---------------------------------------------------------------------------|
B|---------------------------------------------------------------------------|
G|7-7-7-7-7-7-7-7------------------------------------------------------------|
D|7-7-7-7-7-7-7-7-4-4-4-4-4-4-7-7-7-7-7-7-7-7-7-7-7-7-7-7-7-7-7-7------------|
A|5-5-5-5-5-5-5-5-4-4-4-4-4-4-7-7-7-7-7-7-7-7-7-7-7-7-7-7-7-7-7-7------------|
E|----------------2-2-2-2-2-2-4-4-4-4-4-4-5-5-5-5-5-5-5-5-5-5-5-5------------|
                    .........               .........

Outro continuação:
e|---------------------------------|
B|---------------------------------|
G|7-7-7-7-7-7-7-7-7-7-7-7-9~-------|
D|7-7-7-7-7-7-7-7-7-7-7-7-9~-4~----|
A|5-5-5-5-5-5-5-5-5-5-5-5-7~-4~----|
E|---------------------------2~----|

Guitarra 2 partes:
------------------
Intro:(2x)
e|---------------------------------------------------------------------------|
B|---------------------------------------------------------------------------|
G|9-7-6-6-6--9-7-6------9-7-6-6-6-14-14-14-14-14-14-14-----------------------|
D|x-x-x-x-x--x-x-x-7-7--x-x-x-x-x--x--x--x--x--x--x--x-----------------------|
A|7-5-4-4-4--7-5-4-x-x--7-5-4-4-4-12-12-12-12-12-12-12-----------------------|
E|-----------------5-5-------------------------------------------------------|

Verso:  "The sadness comes..." (2x)
e|---------------------------------------------------------------------------|
B|---------------10-9-10-12-10-9---------------------------------------------|
G|14-13-6-6-6-6---9-9--9--9--9-9--14-13-6-6-6-6-14-14-14-14-14-16-16-16-16-16|
D|-x--x-x-x-x-x--------------------x--x-x-x-x-x--x--x--x--x--x--x--x--x--x--x|
A|12-11-4-4-4-4-------------------12-11-4-4-4-4-12-12-12-12-12-14-14-14-14-14|
E|---------------------------------------------------------------------------|

Verso continuação:  "Just when I thought..."
e|---------------------------------------------------------------------------|
B|---------------------------------------------------------------------------|
G|6-6-6-6-6-6-6-6-4-4-4-4-4-4-4-4-6-6-6-6-6-6-6-6--------------6-6-6-6-6-6-6-|
D|x-x-x-x-x-x-x-x-x-x-x-x-x-x-x-x-x-x-x-x-x-x-x-x--------------x-x-x-x-x-x-x-|
A|4-4-4-4-4-4-4-4-2-2-2-2-2-2-2-2-4-4-4-4-4-4-4-4-7-5-4-5-4----4-4-4-4-4-4-4-|
E|----------------------------------------------------------5x---------------|

Verso continução:
e|---------------------------------------------------------------------------|
B|---------------------------------------------------------------------------|
G|4-4-4-4-4-4-4-4-6-6-6-6-6-6-6-6--------------------------------------------|
D|x-x-x-x-x-x-x-x-x-x-x-x-x-x-x-x--2~----------------------------------------|
A|2-2-2-2-2-2-2-2-4-4-4-4-4-4-4-4--2~----------------------------------------|
E|--------------------------------/0~----------------------------------------|

Verso continuação:(2x)  "I remember you and me..."
e|-------------------------------9-7-----------------------------------------|
B|-----------------------------------9-10-10-10-10-10-10-10-10-10-10-10-10-10|
G|11-11-11-11-11-11-11\9-6-6-6-6--------------------------------x--x--x--x--x|
D|-x--x--x--x--x--x--x-x-x-x-x-x--------------------------------7--7--7--7--7|
A|-9--9--9--9--9--9--9\7-4-4-4-4---------------------------------------------|
E|---------------------------------------------------------------------------|

Verso continuação:
e|---------------------------------------------------------------------------|
B|10-10-10-9-9-9-9-9-9-9-9---------------------------------------------------|
G|-x--x--x-x-x-x-x-x-x-x-x---------------------------------------------------|
D|-7--7--7-6-6-6-6-6-6-6-6---------------------------------------------------|
A|---------------------------------------------------------------------------|
E|---------------------------------------------------------------------------|

Repetir Intro:

Repetir verso: The love that I had for you
               Is gone has drifted so far away
               But you're still here in my head
               And you're still here
               You'll never leave my heart

Verso continuação:  "Just when I thought..." (Começa depois da Guitarra 1)
e|---------------------------------------------------------------------------|
B|---------------------------------------------------------------------------|
G|--------------6-6-6-6-6-6-6-6-4-4-4-4-4-4-4-4-6-6-6-6-6-6-6-6--------------|
D|--------------x-x-x-x-x-x-x-x-x-x-x-x-x-x-x-x-x-x-x-x-x-x-x-x--2~----------|
A|7-5-4-5-4-----4-4-4-4-4-4-4-4-2-2-2-2-2-2-2-2-4-4-4-4-4-4-4-4--2~----------|
E|----------5x--------------------------------------------------/0~----------|

Verso continuação:(2x)  "I remember you and me..."
e|-------------------------------9-7-----------------------------------------|
B|-----------------------------------9-10-10-10-10-10-10-10-10-10-10-10-10-10|
G|11-11-11-11-11-11-11\9-6-6-6-6--------------------------------x--x--x--x--x|
D|-x--x--x--x--x--x--x-x-x-x-x-x--------------------------------7--7--7--7--7|
A|-9--9--9--9--9--9--9\7-4-4-4-4---------------------------------------------|
E|---------------------------------------------------------------------------|

Verso continuação:
e|---------------------------------------------------------------------------|
B|10-10-10-9-9-9-9-9-9-9-9---------------------------------------------------|
G|-x--x--x-x-x-x-x-x-x-x-x---------------------------------------------------|
D|-7--7--7-6-6-6-6-6-6-6-6---------------------------------------------------|
A|---------------------------------------------------------------------------|
E|---------------------------------------------------------------------------|

Refrão:  "So stop me now..."
e|---------------------------------------------------------------------------|
B|---------------------------------------------------------------------------|
G|7-7-7-7-7-7-7-7-4-4-4-4-4-4-4-4-------------------------7-7-7-7-7-7-7-7----|
D|x-x-x-x-x-x-x-x-x-x-x-x-x-x-x-x---7-6---7-6---7-6---7-6-x-x-x-x-x-x-x-x----|
A|5-5-5-5-5-5-5-5-2-2-2-2-2-2-2-2-7-----7-----7-----7-----5-5-5-5-5-5-5-5----|
E|---------------------------------------------------------------------------|

Refrão continuação:
e|---------------------------------------------------------------------------|
B|---------------------------------------------------------------------------|
G|4-4-4-4-4-4-4-4-------------------------11-11-11-11-11-11-11-11-13~--14~---|
D|x-x-x-x-x-x-x-x---7-6---7-6---7-6---7-6--x--x--x--x--x--x--x--x--x----x----|
A|2-2-2-2-2-2-2-2-7-----7-----7-----7------9--9--9--9--9--9--9--9-11~--12~---|
E|---------------------------------------------------------------------------|

Repetir Intro:

Fim:  "Cuz I don't want to be just a memory to you."
e|---------------------------------------------------------------------------|
B|---------------------------------------------------------------------------|
G|14-14-14-14-14-14-14-14-13~--14~-------------------------------------------|
D|-x--x--x--x--x--x--x--x--x----x--------------------------------------------|
A|12-12-12-12-12-12-12-12-11~--12~-------------------------------------------|
E|---------------------------------------------------------------------------|
00:00 / 00:00
Outros vídeos desta música
Repetir
Outros vídeos desta música
Composição de Rufio
Colaboração e revisão:
  • Markinhos
3.253 exibições
    • ½ Tom
    • A
    • Bb
    • B
    • C
    • Db
    • D
    • Eb
    • E
    • F
    • F#
    • G
    • Ab
  • Adicionar à lista

    0 comentários

    Ver todos os comentários

    Entre para oCifra Club PRO

    Tenha acesso a benefícios exclusivos no App e no Site

    • Chega de anúncios

    • Prioridade de compra em lançamentos

    • Mais recursos no app do Afinador

    • Atendimento Prioritário

    • Descontos nos produtos Cifra Club

    • Ajude a produzir mais conteúdo

    00:00 / 00:00

    Cifra Club Pro

    Aproveite o Cifra Club com benefícios exclusivos e sem anúncios
    Cifra Club Pro
    Aproveite o Cifra Club com benefícios exclusivos e sem anúncios
    OK