Cifra Club

Mental Games

Rufio

Tab de baixo: Principal
 ----------------------------------


7. MENTAL GAMES
   
   Tuning: EADG

  Intro

G|------------------------------------------|
D|------------------------------------------| (x2)
A|--3-3---3-5-7-7---7-8-5-5---5-7-3-3--3-2--|
E|------------------------------------------|

  Verse
  "This romance I remember...."

G|------------------------------------------|
D|------------------------------------------| (x4)
A|--3-3---3-5-7-----7-8-5-----5-7-3----3-2--|
E|------------------------------------------|

  Pre-Chorus
  "Only one shot for the dream..."

G|---------------------------222-555-----------------------------------222-555---------|
D|--333-777-555-2222222--333---------5555555--333-777-555-2222222--333-----------------|
A|-------------------------------------------------------------------------------------|
E|------------------------------------------------------------------------------33-3x--|

  Chorus
  "These mental games all have rules to break......"

G|---------------------------------|
D|---------------------------------| (x2)
A|------------------333333---------|
E|--111-11-1111-111--------333333--|

G|-----------------------------------|
D|-----------------------------------| 
A|--------------------333333---------|
E|--11xx11xxx1111x111--------333333--|

G|-------------------------|
D|-----------------789-----| 
A|--5555555555-8888---888--|
E|-------------------------|

  Intro

G|------------------------------------------|
D|------------------------------------------| (x2)
A|--3-3---3-5-7-7---7-8-5-5---5-7-3-3--3-2--|
E|------------------------------------------|

  Verse
  "Undecided problems don't see don't speak...." 

G|---------------------------------------|
D|---------------------------------------| (x2)
A|----------2-3----3-5-------------------|
E|--5-5---5------------3----3-5-1---1-3--|

G|-----------------------------------|
D|-----------------------------------| 
A|----------3333333------------------|
E|--5555555---------3-33333-1111111--|

G|-----------------------------------|
D|--------------------------3333333--| 
A|----------3333333------------------|
E|--5555555---------3-33333----------|

  Pre-Chorus
  "Only one shot for the dream..."

G|---------------------------222-555-----------------------------------222-555---------|
D|--333-777-555-2222222--333---------5555555--333-777-555-2222222--333-----------------|
A|-------------------------------------------------------------------------------------|
E|------------------------------------------------------------------------------33-3x--|

  Chorus
  "These mental games all have rules to break......"

G|---------------------------------|
D|---------------------------------| 
A|------------------333333---------|
E|--111-11-1111-111--------333333--|

G|------------------------------------------|
D|------------------------------------------| 
A|------------------333333-3-55-7-555-33-2--|
E|--111-11-1111-111-------------------------|

G|-----------------------------------|
D|-----------------------------------| 
A|--------------------333333---------|
E|--11xx11xxx1111x111--------333333--|

G|-------------------------|
D|-------------------------| 
A|--5555555555-8888888888--|
E|-------------------------|

  Bridge
  "We'll leave today with the windows down......." 

G|--------35------------------------10----|
D|------35------------55555555------------| 
A|--3333-----------------------88888--88--|
E|-----------55555555---------------------|

G|----------------------------------------|
D|-----------------------1----------------| 
A|--33333333------457-----23--------------|
E|-----------55555----333---33-11111111x--|

G|-----------|
D|-----------| 
A|-----------|
E|--333-33x--|

  Chorus
  "These mental games all have rules to break......"

G|---------------------------------|
D|---------------------------------| 
A|------------------333333---------|
E|--111-11-1111-111--------333333--|

G|---------------------------------|
D|----------333-------3542---------| 
A|------------------33-------------|
E|--111-11-1----111--------333333--|

G|-----------------------------------|
D|-----------------------------------| 
A|--------------------333333---------|
E|--11xx11xxx1111x111--------333333--|

G|-------------------------|
D|-----------------789-----| 
A|--5555555555-8888---888--|
E|-------------------------|

G|--------------------------|
D|--------------------------| 
A|--5555555555--------------|
E|-------------11111-33333--|

  Intro

G|------------------------------------------|
D|------------------------------------------| (x2)
A|--3-3---3-5-7-7---7-8-5-5---5-7-3-3--3-2--|
E|------------------------------------------|

  End

G|---------|
D|---------|
A|--33-3~--|
E|---------|






Legend Tab

| /  slide Up
| \  slide Down
| h  Hammer-On
| p  Pull-Off
| ~  vibrato
| x  Mute Note

If you have any questions,comments.....*
*
Composição de Rufio / Scott Sellers
441 exibições

0 comentários

Ver todos os comentários

Conseguiu tocar?

0 Tocaram 0 Ainda não

Grave um vídeo tocando Mental Games e nos envie!

00:00 / 00:00
Outros vídeos desta música
Repetir Qualidade Automático
Outros vídeos desta música
00:00 / 00:00
Automático

Cifra Club Pro

Aproveite o Cifra Club com benefícios exclusivos e sem anúncios
Cifra Club Pro
Aproveite o Cifra Club com benefícios exclusivos e sem anúncios
OK